Oops, an error
Loading. Please wait.

Lights Out Tab

ver1
ver1

Intro

Whole song

More versions @911Tabs.com
5,979 views 24 this week
no commentswrite comment
1 2 3 4 5
accurate
x 4
add to favorites launch autoscroll
font size
0
reset
Autoscroll
+/-
esc
set tempo
stop
Contributor
Difficulty
Tuning
intermediate
D A D G B E
WARNING: You are trying to view
                                    content from Ultimate-Guitar.com
                                    in an unauthorized application,
                                    which is prohibited.

                                    Please use an official Ultimate
                                    Guitar Tabs application for iPhone,
                                    iPad or Android to access legitimate
                                    chords, guitar, bass, and drum tabs
                                    from Ultimate-Guitar.com database.

                                    Type "ultimate guitar tabs" in Apple
                                    App Store's or Android Market's
                                    search to find the application.
Artist : WE ARE THE IN CROWD
Song : LIGHTS OUT
Album : Guaranteed to Disagree
Tabbed by : Liam
Email : Icebreak93@gmail.com
Tuning : Drop D

Hey guys, this a tab I did up earlier today, it may not be 100% but it is
 pretty damn close. The Verses is missing a lead riff, wasn't sure on the
 notes for that part. But the rest of the song is all tabbed. The bridge may
 seem a bit tricky, but it isn't, all the notes are exactly in time with the
 bars of the song, as I made this is GUITAR PRO 5.

Have fun, enjoy, and Support WE ARE THE IN CROWD by BUYING their CD's and
MERCH, that's how they stay alive!!!@! ;)

Any problem or suggestions, email or comment below Happy playing  :)

INTRO

     Rhythm
     S S S S S S S S S S S S S S S S    S S S S S S S S S S S S S S S S  
E||----------------------------------|----------------------------------|
B||----------------------------------|----------------------------------|
G||----------------------------------|----------------------------------|
D||--0-0-0-0-0-0-0-0-7-7-7-7-7-7-7-7-|--2-2-2-2-2-2-2-2-5-5-5-5-5-5-5-5-|
A||--0-0-0-0-0-0-0-0-7-7-7-7-7-7-7-7-|--2-2-2-2-2-2-2-2-5-5-5-5-5-5-5-5-|
D||--0-0-0-0-0-0-0-0-7-7-7-7-7-7-7-7-|--2-2-2-2-2-2-2-2-5-5-5-5-5-5-5-5-|


  S S S S S S S S S S S S S S S S    S S S S S S H        E   
----------------------------------|--------------------------|
----------------------------------|--------------------------|
--7-7-7-7-7-7-7-7-----------------|--7-7-7-------------------|
--7-7-7-7-7-7-7-7-7-7-7-7-7-7-7-7-|--7-7-7-2-2-2-5-----------|
--5-5-5-5-5-5-5-5-7-7-7-7-7-7-7-7-|--5-5-5-2-2-2-5-----------|
------------------7-7-7-7-7-7-7-7-|--------2-2-2-5-----------|

     Lead
     S S S  S  S  S S S S S S S S S S S  
E||-------------------------------------|
B||-------------------------------------|
G||--7-7-7-11-11-11-9-9-9-9-9-9-9-9-9-9-|
D||-------------------------------------|
A||--5-5-5--9--9--9-7-7-7-7-7-7-7-7-7-7-|
D||-------------------------------------|


  S S  S  S  S  S  S  S  S  S  S  S  S  S  S  S 
------------------------------------------------|
------------------------------------------------|
--9-9-12-12-11-11-12-12-14-14-12-12-11-11-12-12-|
------------------------------------------------|
--7-7-10-10--9--9-10-10-12-12-10-10--9--9-10-10-|
------------------------------------------------|


  S S S  S  S  S S S S S S S S S S S     S  S  S  S  S  S H           
-------------------------------------|-----------------------|
-------------------------------------|-----------------------|
--7-7-7-11-11-11-9-9-9-9-9-9-9-9-9-9-|--12-12-12-11-11-11-7--|
-------------------------------------|-----------------------|
--5-5-5--9--9--9-7-7-7-7-7-7-7-7-7-7-|--10-10-10--9--9--9-5--|
-------------------------------------|-----------------------|


VERSE

  W                   W                   W                   W                 
-------------------|-------------------|-------------------|----------------|
-------------------|-------------------|-------------------|----------------|
-------------------|-------------------|-------------------|----------------|
--0----------------|--0----------------|--5----------------|--5-------------|
--0----------------|--0----------------|--5----------------|--5-------------|
--0----------------|--0----------------|--5----------------|--5-------------|


    PM PM        PM PM PM PM           PM PM        PM PM PM PM       
  S S  S  Q    S S  S  S  S  Q       S S  S  Q    S S  S  S  S  Q     
----------------------------------|----------------------------------|
----------------------------------|----------------------------------|
----------------------------------|----------------------------------|
----------0----L------------------|----------0----L------------------|
----0--0--0----L-0--0--0--0-------|----0--0--0----L-0--0--0--0-------|
----0--0--0----L-0--0--0--0-------|----0--0--0----L-0--0--0--0-------|


    PM PM        PM PM PM PM           PM PM        PM PM PM PM       
  S S  S  Q    S S  S  S  S  Q       S S  S  Q    S S  S  S  S  Q     
----------------------------------|----------------------------------|
----------------------------------|----------------------------------|
----------------------------------|----------------------------------|
----------5----L------------------|----------5----L------------------|
----5--5--5----L-5--5--5--5-------|----5--5--5----L-5--5--5--5-------|
----5--5--5----L-5--5--5--5-------|----5--5--5----L-5--5--5--5-------|

PRE-CHORUS

     Rhythm

  S S S S S S S S S S S S S S S S    S S S S S S S S S S S S S S S S  
----------------------------------|----------------------------------|
----------------------------------|----------------------------------|
--9-9-9-9-9-9-9-9-9-9-9-9-9-9-9-9-|----------------------------------|
--9-9-9-9-9-9-9-9-9-9-9-9-9-9-9-9-|--5-5-5-5-5-5-5-5-5-5-5-5-5-5-5-5-|
--7-7-7-7-7-7-7-7-7-7-7-7-7-7-7-7-|--5-5-5-5-5-5-5-5-5-5-5-5-5-5-5-5-|
----------------------------------|--5-5-5-5-5-5-5-5-5-5-5-5-5-5-5-5-|


  S S S S S S S S  S  S  S  S  S  S  S  S    S S S S S S S S H         
------------------------------------------|---------------------------|
------------------------------------------|---------------------------|
--9-9-9-9-9-9-9-9-11-11-11-11-11-11-11-11-|---------------------------|
--9-9-9-9-9-9-9-9-11-11-11-11-11-11-11-11-|--5-5-5-5-5-5-5-5-7--------|
--7-7-7-7-7-7-7-7--9--9--9--9--9--9--9--9-|--5-5-5-5-5-5-5-5-7--------|
------------------------------------------|--5-5-5-5-5-5-5-5-7--------|

     Lead

  S S S  S  S  S  S  S  S  S  S  S  S  S  S  S  
-----------------------------------------------|
-----------------------------------------------|
--9-9-9-12-12-12-11-11-11-11-11-11-11-11-11-11-|
-----------------------------------------------|
--7-7-7-10-10-10--9--9--9--9--9--9--9--9--9--9-|
-----------------------------------------------|


  S S S  S  S  S  S  S  S  S  S  S  S  S  S  S  
-----------------------------------------------|
-----------------------------------------------|
--9-9-9-14-14-14-12-12-12-12-12-12-12-12-12-12-|
-----------------------------------------------|
--7-7-7-12-12-12-10-10-10-10-10-10-10-10-10-10-|
-----------------------------------------------|


  S S S S S S S S  S  S  S  S  S  S  S  S     S  S  S  S  S  S  S  S  H         
------------------------------------------|---------------------------------|
------------------------------------------|---------------------------------|
--9-9-9-9-9-9-9-9-11-11-11-11-11-11-11-11-|--12-12-12-12-12-12-12-12-14-----|
------------------------------------------|---------------------------------|
--7-7-7-7-7-7-7-7--9--9--9--9--9--9--9--9-|--10-10-10-10-10-10-10-10-12-----|
------------------------------------------|---------------------------------|


CHORUS

     Rhythm

  W                   S S S S S S S S S S S S S S S S  
-------------------|----------------------------------|
-------------------|----------------------------------|
-------------------|----------------------------------|
--L----------------|--0-0-0-0-0-0-0-0-7-7-7-7-7-7-7-7-|
--L----------------|--0-0-0-0-0-0-0-0-7-7-7-7-7-7-7-7-|
--L----------------|--0-0-0-0-0-0-0-0-7-7-7-7-7-7-7-7-|


  S S S S S S S S S S S S S S S S    S S S S S S S S S S S S S S S S  
----------------------------------|----------------------------------|
----------------------------------|----------------------------------|
----------------------------------|--7-7-7-7-7-7-7-7-----------------|
--2-2-2-2-2-2-2-2-5-5-5-5-5-5-5-5-|--7-7-7-7-7-7-7-7-7-7-7-7-7-7-7-7-|
--2-2-2-2-2-2-2-2-5-5-5-5-5-5-5-5-|--5-5-5-5-5-5-5-5-7-7-7-7-7-7-7-7-|
--2-2-2-2-2-2-2-2-5-5-5-5-5-5-5-5-|------------------7-7-7-7-7-7-7-7-|


  S S S S S S S S S S S S S S S S    S S S S S S S S S S S S S S S S  
----------------------------------|----------------------------------|
----------------------------------|----------------------------------|
--7-x-x---------------------------|----------------------------------|
--7-x-x-2-x-x-5-5-5-5-5-5-5-5-5-5-|--0-0-0-0-0-0-0-0-7-7-7-7-7-7-7-7-|
--5-x-x-2-x-x-5-5-5-5-5-5-5-5-5-5-|--0-0-0-0-0-0-0-0-7-7-7-7-7-7-7-7-|
----x-x-2-x-x-5-5-5-5-5-5-5-5-5-5-|--0-0-0-0-0-0-0-0-7-7-7-7-7-7-7-7-|


                                           
  S S S S S S S S S S S S S S S S    
----------------------------------|
----------------------------------|
----------------------------------|
--5-5-5-5-5-5-5-5-5-5-5-5-5-5-5-5-|
--5-5-5-5-5-5-5-5-5-5-5-5-5-5-5-5-|
--5-5-5-5-5-5-5-5-5-5-5-5-5-5-5-5-|

     LEAD


                      S S S S S S S S  S  S  S  S  S  S  S  S  
-------------------|------------------------------------------|
-------------------|------------------------------------------|
--L----------------|--7-7-7-7-7-7-7-7-14-14-14-14-14-14-14-14-|
-------------------|------------------------------------------|
--L----------------|--5-5-5-5-5-5-5-5-12-12-12-12-12-12-12-12-|
-------------------|------------------------------------------|


  S S S S S S S S  S  S  S  S  S  S  S  S  
------------------------------------------|
------------------------------------------|
--9-9-9-9-9-9-9-9-12-12-12-12-12-12-12-12-|
------------------------------------------|
--7-7-7-7-7-7-7-7-10-10-10-10-10-10-10-10-|
------------------------------------------|


  S S S S S S S S  S  S  S  S  S  S  S  S  
------------------------------------------|
------------------------------------------|
--7-7-7-7-7-7-7-7-14-14-14-14-14-14-14-14-|
------------------------------------------|
--5-5-5-5-5-5-5-5-12-12-12-12-12-12-12-12-|
------------------------------------------|


  S S S S S S  S  S  S  S  S  S  S  S  S  S  
--------------------------------------------|
--------------------------------------------|
--7-x-x-9-x-x-12-12-12-12-12-12-12-12-12-12-|
----x-x---x-x-------------------------------|
--5-x-x-7-x-x-10-10-10-10-10-10-10-10-10-10-|
--------------------------------------------|


  S S S S S S S S  S  S  S  S  S  S  S  S  
------------------------------------------|
------------------------------------------|
--7-7-7-7-7-7-7-7-14-14-14-14-14-14-14-14-|
------------------------------------------|
--5-5-5-5-5-5-5-5-12-12-12-12-12-12-12-12-|
------------------------------------------|


   S  S  S  S  S  S  S  S  S  S  S  S  S  S  S  S                      
--------------------------------------------------|
--------------------------------------------------|
--12-12-12-12-12-12-12-12-12-12-12-12-12-12-12-12-|
--------------------------------------------------|
--10-10-10-10-10-10-10-10-10-10-10-10-10-10-10-10-|
--------------------------------------------------|


VERSE 2

Rhythm is the same

     LEAD

 S S S S S S S S S S S S S S S S    S S S S S S S S S S S S S S S S  
----------------------------------|----------------------------------|
----------------------------------|----------------------------------|
--7---7---7---7---7---7---7---7---|--7---7---7---7---7---7---7---7---|
----------------------------------|----------------------------------|
--5---5---5---5---5---5---5---5---|--5---5---5---5---5---5---5---5---|
----------------------------------|----------------------------------|


   S S  S S  S S  S S  S S  S S  S S  S S  
------------------------------------------|
------------------------------------------|
--12---12---12---12---12---12---12---12---|
------------------------------------------|
--10---10---10---10---10---10---10---10---|
------------------------------------------|


   S S  S S  S S  S S  S S  S S  S S  S S                      
------------------------------------------|
------------------------------------------|
--12---12---12---12---12---12---12---12---|
------------------------------------------|
--10---10---10---10---10---10---10---10---|
------------------------------------------|

BRIDGE

     Rhythm

   S S S S S S S S S S S S S S S S  
|----------------------------------|
|----------------------------------|
|----------------------------------|
|----------------------------------|
|--9-9-9-9-9-9-9-9-9-9-9-9-9-9-9-9-|
|--9-9-9-9-9-9-9-9-9-9-9-9-9-9-9-9-|


  S S S S S S S S S S S S S S S S    S S S S S S S S S S S S S S S S  
----------------------------------|----------------------------------|
----------------------------------|----------------------------------|
----------------------------------|----------------------------------|
----------------------------------|----------------------------------|
--5-5-5-5-5-5-5-5-5-5-5-5-5-5-5-5-|--0-0-0-0-0-0-0-0-0-0-0-0-0-0-0-0-|
--5-5-5-5-5-5-5-5-5-5-5-5-5-5-5-5-|--0-0-0-0-0-0-0-0-0-0-0-0-0-0-0-0-|


  S S S S S S S S S S S S S S S S    S S S S S S S S S S S S S S S S  
----------------------------------|----------------------------------|
----------------------------------|----------------------------------|
----------------------------------|----------------------------------|
----------------------------------|----------------------------------|
--4-4-4-4-4-4-4-4-4-4-4-4-4-4-4-4-|--9-9-9-9-9-9-9-9-9-9-9-9-9-9-9-9-|
--4-4-4-4-4-4-4-4-4-4-4-4-4-4-4-4-|--9-9-9-9-9-9-9-9-9-9-9-9-9-9-9-9-|


  S S S S S S S S S S S S S S S S    S S S S S S S S S S S S S S S S  
----------------------------------|----------------------------------|
----------------------------------|----------------------------------|
----------------------------------|----------------------------------|
----------------------------------|----------------------------------|
--5-5-5-5-5-5-5-5-5-5-5-5-5-5-5-5-|--0-0-0-0-0-0-0-0-0-0-0-0-0-0-0-0-|
--5-5-5-5-5-5-5-5-5-5-5-5-5-5-5-5-|--0-0-0-0-0-0-0-0-0-0-0-0-0-0-0-0-|


  S S S S S S S S S S S S S S S S        
----------------------------------|----||
----------------------------------|----||
----------------------------------|----||
----------------------------------|----||
--7-7-7-7-7-7-7-7-7-7-7-7-7-7-7-7-|----||
--7-7-7-7-7-7-7-7-7-7-7-7-7-7-7-7-|----||

     LEAD

  S  S  S  S  S  S  S  S  S  S  S  S  S  S  S  S  
--------------------------------------------------|
--------------------------------------------------|
--16-16-14-14-14-14-16-16-14-14-14-14-12-12-12-12-|
--------------------------------------------------|
--14-14-12-12-12-12-14-14-12-12-12-12-10-10-10-10-|
--------------------------------------------------|


   S  S  S  S  S  S  S  S  S  S  S  S  S  S  S  S  
--------------------------------------------------|
--------------------------------------------------|
--16-16-14-14-14-14-16-16-14-14-14-14-14-14-14-14-|
--------------------------------------------------|
--14-14-12-12-12-12-14-14-12-12-12-12-12-12-12-12-|
--------------------------------------------------|


   S  S  S  S  S  S S S S S S S S S S S  
----------------------------------------|
----------------------------------------|
--13-13-13-11-11-11-9-9-9-9-9-9-9-9-9-9-|
----------------------------------------|
--11-11-11--9--9--9-7-7-7-7-7-7-7-7-7-7-|
----------------------------------------|


   S  S  S  S  S  S  S  S  S  S  S  S  S  S  S  S  
--------------------------------------------------|
--------------------------------------------------|
--11-11-11-11-11-11-11-11-13-13-13-13-13-13-13-13-|
--------------------------------------------------|
---9--9--9--9--9--9--9--9-11-11-11-11-11-11-11-11-|
--------------------------------------------------|


   S  S  S  S  S  S  S  S  S  S  S  S  S  S  S  S  
--------------------------------------------------|
--------------------------------------------------|
--16-16-14-14-14-14-16-16-14-14-14-14-12-12-12-12-|
--------------------------------------------------|
--14-14-12-12-12-12-14-14-12-12-12-12-10-10-10-10-|
--------------------------------------------------|


   S  S  S  S  S  S  S  S  S  S  S  S  S  S  S  S  
--------------------------------------------------|
--------------------------------------------------|
--16-16-14-14-14-14-16-16-14-14-14-14-14-14-14-14-|
--------------------------------------------------|
--14-14-12-12-12-12-14-14-12-12-12-12-12-12-12-12-|
--------------------------------------------------|


   S  S  S  S  S  S S S S S S S S S S S  
----------------------------------------|
----------------------------------------|
--13-13-13-11-11-11-9-9-9-9-9-9-9-9-9-9-|
----------------------------------------|
--11-11-11--9--9--9-7-7-7-7-7-7-7-7-7-7-|
----------------------------------------|


   S  S  S  S  S  S  S  S  S  S  S  S  S  S  S  S                       
--------------------------------------------------|
--------------------------------------------------|
--11-11-11-11-13-13-13-13-14-14-14-14-14-14-14-14-|
--------------------------------------------------|
---9--9--9--9-11-11-11-11-12-12-12-12-12-12-12-12-|
--------------------------------------------------|





Duration Legend
---------------
W - whole
H - half
Q - quarter
E - 8th
S - 16th
T - 32nd
X - 64th
. - note dotted
|-n-|  - n-tuplets

comments
print report bad tab
I want to post or [tab]
guest
You may want to rate the tab now too:
select rating
Please do not post tabs as comments. Select "correction" instead!