Oops, an error
Loading. Please wait.

Rumor Mill Tab

ver3
ver3

Whole song

Interactive

More versions @911Tabs.com
1,976 views 21 this week
no commentswrite comment
1 2 3 4 5
excellent!
x 1
Autoscroll
+/-
esc
set tempo
stop
Contributor
Difficulty
Tuning
novice
C# G# C# F# A# D#
WARNING: You are trying to view
                                    content from Ultimate-Guitar.com
                                    in an unauthorized application,
                                    which is prohibited.

                                    Please use an official Ultimate
                                    Guitar Tabs application for iPhone,
                                    iPad or Android to access legitimate
                                    chords, guitar, bass, and drum tabs
                                    from Ultimate-Guitar.com database.

                                    Type "ultimate guitar tabs" in Apple
                                    App Store's or Android Market's
                                    search to find the application.


-----------------------------------
Rumor Mill - We Are The In Crowd
-----------------------------------

Tuning: Drop C# (Db, Ab, Db, Gb, Bb, Eb)

Here is my interpretation of WATIC's Rumor Mill. Lots of their songs use multiple 
guitar overdubs so I've tried to work all of them out by ear. Hope you enjoy!

Key:

p = pull off
h = hammer on
~ = let ring
P.M = Palm Mute
x2 , x4 etc. = Repeat

[Intro] 

Guitar One:
                                                         
Eb|----------------------------|-----------------------------|
Bb|----------------------------|-----------------------------|
Gb|----------------------------|-7--7-7--7-7--7-7-7--7-7-7-7-|
Db|-5--5-5--5-0--0--0--0-0-0-0-|-5--5-5--5-5--5-5-5--5-5-5-5-|
Ab|-5--5-5--5-0--0--0--0-0-0-0-|-3--3-3--3-3--3-3-3--3-3-3-3-|
Db|-5--5-5--5-0--0--0--0-0-0-0-|-----------------------------|

Eb|----------------------------|-----------------------------|
Bb|----------------------------|-----------------------------|
Gb|----------------------------|-7777-7777-7777-7777---------|
Db|-5--5-5--5-0--0--0--0-0-0-0-|-5555-5555-5555-5555---------|
Ab|-5--5-5--5-0--0--0--0-0-0-0-|-3333-3333-3333-3333---------|
Db|-5--5-5--5-0--0--0--0-0-0-0-|-----------------------------|

Guitar Two:

Eb|-------------------------------------------------|
Bb|-------------------------------------------------|
Gb|-14--14--11--11--14--14-11--11--11--11-12-12-12--|
Db|-------------------------------------------------|
Ab|-12--12---9---9--12--12--9---9---9---9-10-10-10--|
Eb|-------------------------------------------------|

Eb|-------------------------------------------------|
Bb|-------------------------------------------------|
Gb|-12--12--7--7--12--12--7--7--7-7-7-7-------------|
Db|-------------------------------------------------|
Ab|-10--10--5--5--10--10--5--5--5-5-5-5-------------|
Eb|-------------------------------------------------|

Eb|-------------------------------------------------|
Bb|-------------------------------------------------|
Gb|-14--14--11--11--14--14-11--11--11--11-12-12-12--|
Db|-------------------------------------------------|
Ab|-12--12---9---9--12--12--9---9---9---9-10-10-10--|
Eb|-------------------------------------------------|

Eb|--------------------------------------------------|
Bb|-12-12-12-12-12-12-12-12--12-12-12-12-12-12-12-12-|
Gb|-12-12-12-12-12-12-12-12--12-12-12-12-12-12-12-12-|
Db|--------------------------------------------------|
Ab|-10-10-10-10-10-10-10-10--10-10-10-10-10-10-10-10-|
Db|--------------------------------------------------|

[Verse] 

Guitar One:

Eb|-----3--------3--------3---------3---|-----5--------5--------2--------2----|
Bb|---3---3----3---3----3----3----3---3-|---3---3----3---3----3---3----3---3--|
Gb|-0--------0--------0---------0-------|-0--------0--------0--------0--------| 
Db|-------------------------------------|-------------------------------------|
Ab|-------------------------------------|-------------------------------------|
Db|-------------------------------------|-------------------------------------|

                                      x2
Eb|-----3--------3--------3--------3----|
Bb|---3---3----3---3----3---3----3---3--|
Gb|-5--------5--------5--------5--------|
Db|-------------------------------------|
Ab|-------------------------------------|
Db|-------------------------------------|

Guitar Two:

Eb|-------------------------------------|
Bb|-------------------------------------|
Gb|----------------------77-------------|
Db|-55-------------------55-------------|
Ab|-55-------------------33-------------|
Db|-55----------------------------------|

Guitar Three:

Eb|-------------------------------------|
Bb|----------------------55-------------|
Gb|----------------------55-------------|
Db|-55-------------------55-------------|
Ab|-55-------------------33-------------|
Db|-55----------------------------------|

Guitar One: 

Eb|---------------------|---------------------|
Bb|---------------------|---------------------|
Gb|---------------------|---------------------|
Db|-5555-5555-5555-5555-|-5555-5555-5555-5555-|
Ab|-5555-5555-5555-5555-|-5555-5555-5555-2222-|
Db|-5555-5555-5555-5555-|-5555-5555-5555------|
P.M .... .... .... ....   .... .... .... ....

Eb|---------------------|---------------------|
Bb|---------------------|---------------------|
Gb|-5555-5555-5555-5555-|-5555-5555-5555-5555-|
Db|-5555-5555-5555-5555-|-5555-5555-5555-5555-|
Ab|-3333-3333-3333-3333-|-3333-3333-3333-3333-|
Db|---------------------|---------------------|
P.M .... .... .... ....   .... ..(release)

[Pre-Chorus] 

Guitar One:

Eb|----------------------------------------------|
Bb|----------------------------------8-----------|
Gb|------------5555-555--------------7--777-7777-|
Db|-2222-2222--5555-555--5--555-555--5--777-7777-|
Ab|-2222-2222--3333-333--5--555-555-----555-5555-|
Db|-2222-2222------------5--555-555--------------|

Eb|----------------------------------------------|
Bb|----------------------------------------------|
Gb|------------5555-5555--7777-7777-7777--xxx----|
Db|-2222-2222--5555-5555--7777-7777-7777--xxx----|
Ab|-2222-2222--3333-3333--5555-5555-5555--xxx----|
Db|-2222-2222------------------------------------|

Guitar Two:

Eb|-------------------------------------------------|
Bb|-------------------------------------------------|
Gb|-16-16-16-16--16-16-16-16--17-17-17-17--17-17-17-|
Db|-------------------------------------------------|
Ab|-14-14-14-14--14-14-14-14--15-15-15-15--15-15-15-|
Db|-------------------------------------------------|

                         x2
Eb|------------------------|
Bb|------------------------|
Gb|-12--11-11-11-11-11-11--|
Db|------------------------|
Ab|-10---9--9--9--9--9--9--|
Db|------------------------|

Eb|----------------------------------------------------|
Bb|----------------------------------------------------|
Gb|-16-16-16-16--16-16-16-16--17-17-17-17--17-17-17-17-|
Db|----------------------------------------------------|
Ab|-14-14-14-14--14-14-14-14--15-15-15-15--15-15-15-15-|
Db|----------------------------------------------------|

Eb|---------------------------------------------|
Bb|---------------------------------------------|
Gb|-11-11-11-11--12-12-12-12--14-14-14-14--xxx--|
Db|----------------------------------------xxx--|
Ab|--9--9--9--9--10-10-10-10--12-12-12-12--xxx--|
Db|---------------------------------------------|


Guitar Three:

(Same as guitar two but ending different)

Eb|-----------------------------|
Bb|-----------------------------|
Gb|-7777-9999-10-10-10-10--xxx--|
Db|------------------------xxx--|
Ab|-5555-7777--9--9--9--9--xxx--|
Db|-----------------------------|

[Chorus]

Guitar One:

Eb|--------------------------|--------------------------|
Bb|--------------------------|--------------------------|
Gb|-5--5-55-555--------------|--------------------------|
Db|-5--5-55-555--5--5-55-555-|-0--0-00-000--2--2-22-222-|
Ab|-3--3-33-333--5--5-55-555-|-0--0-00-000--2--2-22-222-|
Db|--------------5--5-55-555-|-0--0-00-000--2--2-22-222-|

Eb|--------------------------|--------------------------|
Bb|--------------------------|--------------------------|
Gb|-5--5-55-555--------------|-7--7-77-7777-7777-7777---|
Db|-5--5-55-555--5--5-55-555-|-7--7-77-7777-7777-7777---|
Ab|-3--3-33-333--5--5-55-555-|-5--5-55-5555-5555-5555---|
Db|--------------5--5-55-555-|--------------------------|


Guitar Two:

                          x2                                
Eb|-------------------------|
Bb|-------------------------|
Gb|-12--12--12-12--12-12-12-|
Db|-------------------------|
Ab|-10--10--10-10--10-10-10-|
Db|-------------------------|

Eb|-------------------------|-------------------------|
Bb|-------------------------|-------------------------|
Gb|-11--11--11-11--11-11-11-|-12--12--12-12--12-12-12-|
Db|-------------------------|-------------------------|
Ab|--9---9---9--9---9--9--9-|-10--10--10-10--10-10-10-|
Eb|-------------------------|-------------------------|

                         x2                                
Eb|-------------------------|
Bb|-------------------------|
Gb|-12--12--12-12--12-12-12-|
Db|-------------------------|
Ab|-10--10--10-10--10-10-10-|
Db|-------------------------|
                          
Eb|----------------------------------------------------|
Bb|----------------------------------------------------|
Gb|-11-11-11-11--12-12-12-12--14-14-14-14--14-14-14-14-|
Db|----------------------------------------------------|
Ab|--9--9--9--9--10-10-10-10--12-12-12-12--12-12-12-12-|
Db|----------------------------------------------------|

Guitar One: 

Eb|----------------------|-----------------------|
Bb|----------------------|-----------------------|
Gb|-5555-5555------------|-----------------------|
Db|-5555-5555--5555-5555-|-0000-0000--22--2--2---|
Ab|-3333-3333--5555-5555-|-0000-0000--22--2--2---|
Db|------------5555-5555-|-0000-0000--22--2--2---|

Eb|--------------------------|--------------------------|
Bb|--------------------------|--------------------------|
Gb|-5--5-55-555--------------|-7777-7777-7777-7777------|
Db|-5--5-55-555--5--5-55-555-|-7777-7777-7777-7777------|
Ab|-3--3-33-333--5--5-55-555-|-5555-5555-5555-5555------|
Db|--------------5--5-55-555-|--------------------------|

Guitar Two:

Eb|-15-----------------|-----------------------|------------------|------------|
Bb|-----15-------------|-----------12h13-12h13-|------------------|------------|
Gb|---------12--12-----|----12--12-------------|-14--14p11--11----|------------|
Db|-----------------12-|-12--------------------|---------------12-|-22--2--2---|
Ab|--------------------|-----------------------|------------------|-22--2--2---|
Db|--------------------|-----------------------|------------------|-22--2--2---|

                         x2                                
Eb|-------------------------|
Bb|-------------------------|
Gb|-12--12--12-12--12-12-12-|
Db|-------------------------|
Ab|-10--10--10-10--10-10-10-|
Db|-------------------------|
                          
Eb|----------------------------------------------------|
Bb|----------------------------------------------------|
Gb|-11-11-11-11--12-12-12-12--14-14-14-14--14-14-14-14-|
Db|----------------------------------------------------|
Ab|--9--9--9--9--10-10-10-10--12-12-12-12--12-12-12-12-|
Db|----------------------------------------------------|
                        

[Verse 2]

Guitar One:

Eb|---------------------|---------------------|
Bb|---------------------|---------------------|
Gb|---------------------|---------------------|
Db|-5555-5555-5555-5555-|-2222-2222-2222-2222-|
Ab|-5555-5555-5555-5555-|-2222-2222-2222-2222-|
Db|-5555-5555-5555-5555-|-2222-2222-2222-2222-|
P.M .... .... .... ....  Continue palm mute

Eb|---------------------|---------------------|
Bb|---------------------|---------------------|
Gb|-5555-5555-5555-5555-|---------------------|
Db|-5555-5555-5555-5555-|-5555-5555-5555-5555-|
Ab|-3333-3333-3333-3333-|-5555-5555-5555-5555-|
Db|---------------------|-5555-5555-5555-5555-|

Eb|--------------------|---------------------------------|
Bb|--------------------|---------------------------------|
Gb|--------------------|-77---77-------------------------|
Db|-55---55----22---22-|-55---55-----5555-5555-5555-5555-|
Ab|-55---55----22---22-|-33---33-----5555-5555-5555-5555-|
Db|-55---55----22---22-|-------------5555-5555-5555-5555-|
(no palm mute)                   P.M .... .... (release)

Guitar Two:

Eb|---------------------|---------------------|
Bb|---------------------|---------------------|
Gb|---------------------|---------------------|
Db|-5555-5555-5555-5555-|-2222-2222-2222-2222-|
Ab|-5555-5555-5555-5555-|-2222-2222-2222-2222-|
Db|-5555-5555-5555-5555-|-2222-2222-2222-2222-|
P.M .... .... .... ....  Continue palm mute

Eb|---------------------|---------------------|
Bb|---------------------|---------------------|
Gb|-5555-5555-5555-5555-|---------------------|
Db|-5555-5555-5555-5555-|-5555-5555-5555-5555-|
Ab|-3333-3333-3333-3333-|-5555-5555-5555-5555-|
Db|---------------------|-5555-5555-5555-5555-|

           x4         x4        x4        x4
Eb|-----3----|-----10---|-----3---|-----3---|
Bb|---3---3--|---8----8-|---3---3-|---3---3-|
Gb|-0--------|-9--------|-5-------|-0-------|
Db|----------|----------|---------|---------|
Ab|----------|----------|---------|---------|
Db|----------|----------|---------|---------|
(no palm mute)

[Post Chorus 2]

Guitar One:

Eb|----------------------|
Bb|----------------------|
Gb|----------------------|
Db|-222-000-222-000-0000-|
Ab|-222-000-222-000-0000-|
Db|-222-000-222-000-0000-|

Guitar Two:

Eb|-----------------------------------------------------|
Bb|-----------------------------------------------------|
Gb|-16-16-16--14-14-14--16-16-16--14-14-14--14-14-14-14-|
Db|-----------------------------------------------------|
Ab|-14-14-14--12-12-12--14-14-14--12-12-12--12-12-12-12-|
Db|-----------------------------------------------------|

[Bridge Part One] 

Guitar One:

Eb|----------------------------------------------------------|
Bb|----------------------------------------------------------|
Gb|----------------------------------------------------------|
Db|-7777-7777-7777-7777--10101010-10101010-10101010-10101010-|
Ab|-7777-7777-7777-7777--10101010-10101010-10101010-10101010-|
Db|-7777-7777-7777-7777--10101010-10101010-10101010-10101010-|

Eb|------------------------------------------|
Bb|------------------------------------------|
Gb|----------------------7777-7777-7777-7----|
Db|-5555-5555-5555-5555--7777-7777-7777-7--0-|
Ab|-5555-5555-5555-5555--5555-5555-5555-5--0-|
Db|-5555-5555-5555-5555--------------------0-|

Eb|------------------------------------------|
Bb|------------------------------------------|
Gb|------------------------------------------|
Db|-7777-7777-7777-7777--2222-2222-2222-2222-|
Ab|-7777-7777-7777-7777--2222-2222-2222-2222-|
Db|-7777-7777-7777-7777--2222-2222-2222-2222-|

Eb|------------------------------------------|
Bb|------------------------------------------|
Gb|-5555-5555-5555-5555----------------------|
Db|-5555-5555-5555-5555--0000-0000-0000-0000-|
Ab|-3333-3333-3333-3333--0000-0000-0000-0000-|
Db|----------------------0000-0000-0000-0000-|

Guitar Two:

Eb|----------------------------------------------------------|
Bb|----------------------------------------------------------|
Gb|-9999-9999-9999-9999--12121212-12121212-12121212-12121212-|
Db|----------------------------------------------------------|
Ab|-7777-7777-7777-7777--10101010-10101010-10101010-10101010-|
Db|----------------------------------------------------------|

Eb|-----------------------------------------------------------------------|
Bb|-----------------------------------------------------------------------|
Gb|-16161616-16161616-16161616-17171717--14141414-14141414-12121212-12----|
Db|---------------------------------------------------------------------0-|
Ab|-14141414-14141414-14141414-15151515--12121212-12121212-10101010-10--0-|
Db|---------------------------------------------------------------------0-|

Eb|------------------------------------------|
Bb|------------------------------------------|
Gb|-9999-9999-9999-9999--4444-4444-4444-4444-|
Db|------------------------------------------|
Ab|-7777-7777-7777-7777--2222-2222-2222-2222-|
Db|------------------------------------------|

Eb|------------------------------------------------------------------|
Bb|------------------------------------------------------------------|
Gb|-5555-7777-5555-5555--7777--11-11-11-11--14-14-14-14--14-14-14-14-|
Db|-----------5555-5555----------------------------------------------|
Ab|-----------3333-3333--5555---9--9--9--9--12-12-12-12--12-12-12-12-|
Db|------------------------------------------------------------------|

[Bridge Part Two]

Guitar One:

                          
Eb|--------------------------|--------------------------|
Bb|--------------------------|--------------------------|
Gb|---------------5~~~~~~~~~-|---------------5~~~~~--5--|
Db|-5~~~~~-0~~~~~-5~~~~~~~~~-|-5~~~~~-0~~~~~-5~~~~~--5--|
Ab|-5~~~~~-0~~~~~-3~~~~~~~~~-|-5~~~~~-0~~~~~-3~~~~~--3--|
Db|-5~~~~~-0~~~~~------------|-5~~~~~-0~~~~~------------|

Guitar Two:

Eb|-7777-7777--5555-5555--8888-8888-8888-8888-|
Bb|-8888-8888--8888-8888--8888-8888-8888-8888-|
Gb|-------------------------------------------|
Db|-------------------------------------------|
Ab|-------------------------------------------|
Db|-------------------------------------------|

Eb|-7777-7777--5555-5555--8888-8888--8-|
Bb|-8888-8888--8888-8888--8888-8888--8-|
Gb|------------------------------------|
Db|------------------------------------|
Ab|------------------------------------|
Db|------------------------------------|

[Outro]

Guitar One:

Eb|----------------------------|-----------------------------|
Bb|----------------------------|-----------------------------|
Gb|----------------------------|-7--7-7--7-7--7-7-7--7-7-7-7-|
Db|-5--5-5--5-0--0--0--0-0-0-0-|-5--5-5--5-5--5-5-5--5-5-5-5-|
Ab|-5--5-5--5-0--0--0--0-0-0-0-|-3--3-3--3-3--3-3-3--3-3-3-3-|
Db|-5--5-5--5-0--0--0--0-0-0-0-|-----------------------------|

Eb|----------------------------|-------------------------|
Bb|----------------------------|-------------------------|
Gb|----------------------------|-7--7---7~~~~~~~~~~~~~~~~|
Db|-5--5-5--5-0--0--0--0-0-0-0-|-5--5---5~~~~~~~~~~~~~~~~|
Ab|-5--5-5--5-0--0--0--0-0-0-0-|-3--3---3~~~~~~~~~~~~~~~~|
Db|-5--5-5--5-0--0--0--0-0-0-0-|-------------------------|

Guitar Two:

Eb|-------------------------------------------------|
Bb|-------------------------------------------------|
Gb|-14--14--10--10--14--14-11--11--11--10-12-12-12--|
Db|-------------------------------------------------|
Ab|-12--12---9---9--12--12--9---9---9---9-10-10-10--|
Eb|-------------------------------------------------|

Eb|-------------------------------------------------|
Bb|-------------------------------------------------|
Gb|-12--12--7--7--12--12--7--7--7-7-7-7-------------|
Db|-------------------------------------------------|
Ab|-10--10--5--5--10--10--5--5--5-5-5-5-------------|
Eb|-------------------------------------------------|

Eb|-------------------------------------------------|
Bb|-------------------------------------------------|
Gb|-14--14--10--10--14--14-11--11--11--11-12-12-12--|
Db|-------------------------------------------------|
Ab|-12--12---9---9--12--12--9---9---9---9-10-10-10--|
Eb|-------------------------------------------------|

Eb|----------------------|
Bb|----------------------|
Gb|-9--9---9~~~~~~~~~~~~~|
Db|----------------------|
Ab|-7--7---7~~~~~~~~~~~~~|
Db|----------------------|

Play the song in this order:

Intro (0:09 - 0:19)
Verse (0:20 - 0:41)
Pre-Chorus 1 (0:42 - 0:52)
Chorus 1(0:53 - 1:14)
Repeat Intro (1:15 - 1:25)
Verse 2 (1:26 - 1:47)
Repeat Pre Chorus 1 (1:48 - 1:58)
Repeat Chorus 1 (1:59 - 2:20)
Post Chorus 2: (2:21 - 2:23)
Bridge Part 1 (2:24 - 2:45)
Bridge Part 2 (2:46 - 2:56)
Repeat Chorus 1 (2:57 - 3:18)
Outro (3:19 - Fade out to the end of the song)


comments
We did not receive enough feedback on this tab! Please rate:
print report bad tab
1 2 3 4 5
I want to post or [tab]
guest
You may want to rate the tab now too:
select rating
Please do not post tabs as comments. Select "correction" instead!