Oops, an error
Loading. Please wait.

Secret Valentine Acoustic Tab

ver3
ver3

Intro

Whole song

Interactive

More versions @911Tabs.com
15,631 views 6 this week
no commentswrite comment
1 2 3 4 5
excellent!
x 4
Autoscroll
+/-
esc
set tempo
stop
Contributor
Difficulty
novice
Hey! There's an official Ultimate Guitar app which is ideal
for learning songs when you're away from computer. Get the app
WARNING: You are trying to view
                                    content from Ultimate-Guitar.com
                                    in an unauthorized application,
                                    which is prohibited.

                                    Please use an official Ultimate
                                    Guitar Tabs application for iPhone,
                                    iPad or Android to access legitimate
                                    chords, guitar, bass, and drum tabs
                                    from Ultimate-Guitar.com database.

                                    Type "ultimate guitar tabs" in Apple
                                    App Store's or Android Market's
                                    search to find the application.
This is my arrangement of We The King's song Secret Valentine

Gtr I Standard Tuning (E A D G B E)
Gtr II Standard Tuning (E A D G B E)

Both Guitars Capo on 3rd

 Intro
  Q=140
  Gtr I
  E E E E E E E E   E E E E E E E E   E E E E E E E E   E E E E E E E E
|-3-------3-------|-3-------3---5---|-2-------2-------|-2-------2---3---|
|---3---3---3---3-|---3---3---------|---3---3---3---3-|---3---3---3---3-|
|-----4-------4---|-----4-----4---4-|-----4-------4---|-----4-----------|
|-----------------|-----------------|-----0-------0---|-----0-----------|
|-----5-------5---|-----5-------5---|-----------------|-------------0---|
|-3-------3-------|-3-------3-------|-2-------2-----2-|-2-------2-------|
  Q   Q   Q   Q     Q   Q   Q   Q     Q   Q   Q   E E   Q   Q   Q   Q


  E E E E E E E E   E E E E E E E E   E E E E E E E E   E E E E h
|-0-------0-------|-0-------0-------|-3-------3-------|-3-------3----|
|---3---3---3---3-|---3---3---3---3-|---3---3---3---3-|---3---3------|
|-----0-------0---|-----0-------0---|-----0-------0---|-----0--------|
|-----------------|-----------------|-----2-------2---|-----2--------|
|-----2-------2---|-----2-------2---|-3-------3-------|-3-------3----|
|-0-------0-------|-0-------0-------|-----------------|--------------|
  Q   Q   Q   Q     Q   Q   Q   Q     Q   Q   Q   Q     Q   Q   h


 Interlude
  E Q    E Q    E E   +E  E Q   Q   Q
|-------------------|-------------------|
|---3------1------0-|-(0)---0-----------|
|-0------0------0---|-----0-----2---4---|
|-------------------|-------------------|
|-------------------|-------------------|
|-3---3------3------|--3------3---3---3-|
  Q   Q.     Q.        Q.     Q   Q   E


  E Q    E Q    E E   +E  E Q   Q   Q
|-------------------|-------------------|
|---3------1------0-|-(0)---0-----------|
|-2------2------2---|-----2-----2---4---|
|-------------------|-------------------|
|-------------------|-------------------|
|-2---2------2------|--2------2---2---2-|
  Q   Q.     Q.        Q.     Q   Q   E


  E Q    E Q    E E   +E  E Q   Q   Q
|-------------------|-------------------|
|---3------1------0-|-(0)---0-----------|
|-0------0------0---|-----0-----2---4---|
|-------------------|-------------------|
|-------------------|-------------------|
|-0---0------0------|--0------0---0---0-|
  Q   Q.     Q.        Q.     Q   Q   E


  E Q    E Q    E E   +E  E Q   Q   Q
|-------------------|-------------------|
|---3------1------0-|-(0)---0-----------|
|-0------0------0---|-----0-----2---4---|
|-------------------|-------------------|
|-3---3------3------|--3------3---3---3-|
|-------------------|-------------------|
  Q   Q.     Q.        Q.     Q   Q   E


  E E E E E E E E   E E E E E E E E   E E E E E E E E   E E E E E E E E
|-----------------|-----------------|-----------------|-----------------|
|---3-----1-----0-|-----0-----------|---3-----1-----0-|-----0-----------|
|-0-----0-----0---|---0-----2---4---|-2-----2-----2---|---2-----2---4---|
|-----------------|-----------------|-----------------|-----------------|
|-----------------|-----------------|-----------------|-----------------|
|-3---3-----3-----|-3-----3---3---3-|-2---2-----2-----|-2-----2---2---2-|
|
| Gtr II
| PM------------------------------------------------------------------|
| E E E E E E E E   E E E E E E E E   E E E E E E E E   E E E E E E E E
|-----------------|-----------------|-----------------|-----------------|
|-----------------|-----------------|-----------------|-----------------|
|-----------------|-----------------|-7-x-x-x-7-x-x-7-|-x-7-x-x-7-x-x-x-|
|-5-x-x-x-5-x-x-5-|-x-5-x-5-5-x-x-x-|-7-x-x-x-7-x-x-7-|-x-7-x-x-7-x-x-x-|
|-5-x-x-x-5-x-x-5-|-x-5-x-5-5-x-x-x-|-5-5-5-5-5-5-5-5-|-5-5-5-5-5-5-5-5-|
|-3-3-3-3-3-3-3-3-|-3-3-3-3-3-3-3-3-|-----------------|-----------------|


  E E E E E E E E   E E E E E E E E   E E E E E E E E   E E E E E E E E
|-----------------|-----------------|-----------------|-----------------|
|---3-----1-----0-|-----0-----------|---3-----1-----0-|-----0-----------|
|-0-----0-----0---|---0-----2---4---|-0-----0-----0---|---0-----2---4---|
|-----------------|-----------------|-----------------|-----------------|
|-----------------|-----------------|-3---3-----3-----|-3-----3---3---3-|
|-0---0-----0-----|-0-----0---0---0-|-----------------|-----------------|
|
| PM------------------------------------------------------------------|
| E E E E E E E E   E E E E E E E E   E E E E E E E E   E E E E E E E E
|-----------------|-----------------|-----------------|-----------------|
|-----------------|-----------------|-----------------|-----------------|
|-----------------|-----------------|-5-x-x-x-5-x-x-5-|-x-5-x-x-5-x-x-x-|
|-2-x-x-x-2-x-x-2-|-x-2-x-x-2-x-x-x-|-5-x-x-x-5-x-x-5-|-x-5-x-x-5-x-x-x-|
|-2-x-x-x-2-x-x-2-|-x-2-x-x-2-x-x-x-|-3-3-3-3-3-3-3-3-|-3-3-3-3-3-3-3-3-|
|-0-0-0-0-0-0-0-0-|-0-0-0-0-0-0-0-0-|-----------------|-----------------|


 Verse
  H       H         H       H         H       Q.     E   Q   H       E E
|-----------------|-----------------|------------------|-----------------|
|---------0-------|-3-------0-------|---------0------0-|-----------------|
|-----0---0---0---|-0---0-0---0---0-|-2----------0---0-|-2---0-------0-2-|
|---0---0---0---0-|---0-----0---0---|---0---0------0---|---0---0---0-----|
|-----------------|-----------------|---------0--------|---------0-----0-|
|-3---------------|-----------------|-2---2------------|-2---2-------2---|
  E E E E E E E E   E E E E E E E E   E E E E E  E E E   E E E E E E E E


  H       Q   Q     Q   H       Q     H       H         W
|-----------------|-----------------|-----------------|-----------------|
|-------------0---|-----------------|-----------------|-----------------|
|-0-------0-------|-2---0-------2---|-0-------0-------|-----0-------0---|
|---2---2---2-----|---2---2---2-0-2-|---2---2---2---2-|---2---2---2---2-|
|-----2---2-----2-|---------2-------|-3---3---3---3---|-3-------3-------|
|-0-----------0---|-0---0-----------|-----------------|-----------------|
  E E E E E E E E   E E E E E E E E   E E E E E E E E   E E E E E E E E


  H       H         H       H         H       H         Q   H       Q
|-----------------|-----------------|-----------------|-----------------|
|---------0-------|-3-------0-------|---------0-------|-----------------|
|-------0---------|-----------------|-2---------------|-2---0-------2---|
|-----0-----0---0-|-----0-----0---0-|-----0-----0---0-|---0-------0-----|
|---2---------2---|---2---2-----2---|---0---0-----0---|-----0---0-----0-|
|-3-------3-------|-3-------3-------|-2-------2-------|-2-----2-----2---|
  E E E E E E E E   E E E E E E E E   E E E E E E E E   E E E E E E E E


  H       +Q    Q     Q   H       Q     +Q    H.             W
|-------------------|-----------------|--------------------|-----------------|
|---------------0---|-----------------|-------5------------|-----------------|
|-0-------(0)-------|-2---0-------2---|-(2)----------------|---0---------0---|
|-----2---------2---|---2-----------2-|-------2------2-----|-2---2-----2---2-|
|---2---2-----2---2-|-----2---2---2---|--3----3----3-----3-|-3-------3-------|
|-0--------0--------|-0-----0---0-----|-----3----3-----3---|-------3---------|
  E E E E  E  E E E   E E E E E E E E    E  E E  E E E E E   E E E E E E E E


 Pre-Chorus
  H    H       H     H      H.      Q     Q    E   E   E   E  E E
|------0----|-------------|-2-------2--|-(2)---2---2--(2)-(2)-----|
|-1---------|--1----------|-3-------3--|--3----3---3--(3)-(3)-0-3-|
|-2---------|-(2)----2----|-2-------2--|--2----2--(2)--0---2------|
|-2---------|-(2)---------|-0----------|------(0)-(0)-(0)---------|
|-0---------|-(0)---------|------------|--------------------------|
|-----------|-------------|------------|--------------------------|
  W           +W            W


 Chorus
  H       E E E E   +H        E E E E
|-----------------|-------------------|
|-3-----------0-3-|-(3)-----------0-5-|
|---0---0-0-2-----|-----2---0-0-2-----|
|-----0-----------|-------0-------0---|
|-------------2---|-------------0-----|
|-3-------3-----2-|-(2)-------2-----0-|
| E E E E Q   E E   +E  E E E E E E E
|
| PM-----------------------------------
| E E E E E E E E    E  E E E E E E E
|-----------------|-------------------|
|-----------------|-------------------|
|-----------------|--7--x-x-x-7-x-x-7-|
|-5-x-x-x-5-x-x-5-|--7--x-x-x-7-x-x-7-|
|-5-x-x-x-5-x-x-5-|--5--5-5-5-5-5-5-5-|
|-3-3-3-3-3-3-3-3-|-------------------|


  +E  E S S E Q   E E   +H        E E E E
|---------------------|--------------------|
|-(5)-3-3-0-------3-0-|-(0)-----------0-3--|
|-----------2-0-------|-----0---0-0-2------|
|-----------------2---|-------2-------2----|
|-------2-----------3-|-(3)-------3--------|
|-(0)---------0-------|-----------------3--|
| +Q    Q     Q   E E   +E  E E E Q   E E
|
|---------------------------------------|
|  E  E E   E E E E E    E  E E E E E E E
|---------------------|--------------------|
|---------------------|--------------------|
|---------------------|--x--5-x-x-5-x-x-x--|
|--2--x-x---x-2-x-x-2-|--x--5-x-x-5-x-x-x--|
|--2--x-x---x-2-x-x-2-|--3--3-3-3-3-3-3-3--|
|--0--0-0---0-0-0-0-0-|--------------------|


  +H        E E E E   +E  Q.     E E E E
|-------------------|--------------------|
|-(3)-----------0-3-|-(3)-0------5-3-0---|
|-----0---0-0-2-----|------------------2-|
|-------0-----------|-----0----0-----0---|
|---------------2---|--------0-----------|
|-(3)-------3-----2-|-(2)--------2-----0-|
| +E  E E E Q   E E   +E  E  E E Q   E E
|
|  PM-------------------------------------
|  E  E E E E E E E    E  E  E E E E E E
|-------------------|--------------------|
|-------------------|--------------------|
|-------------------|--7--x--x-x-7-x-x-7-|
|--5--x-x-x-5-x-x-5-|--7--x--x-x-7-x-x-7-|
|--5--x-x-x-5-x-x-5-|--5--5--5-5-5-5-5-5-|
|--3--3-3-3-3-3-3-3-|--------------------|


  +E  H       E E E    q    q   E E  E  E
|-------------------|---------------------|
|-----------------3-|--3------------------|
|-(2)-0-------2-2---|-------4---2-4--2--0-|
|-------2-0---------|-------2-------------|
|-----2-----2-----3-|-(3)-------3---(3)---|
|-(0)---------0-----|---------------------|
| +E  E E E E Q   E   +Q    Q   Q   +Q
|
|---------------------------------------|
|  E  E E E E E E E    E  E E E E E  E  E
|-------------------|---------------------|
|-------------------|---------------------|
|-------------------|--x--5-x-x-5-x--x--x-|
|--2--x-x-x-2-x-x-2-|--x--5-x-x-5-x--x--x-|
|--2--x-x-x-2-x-x-2-|--3--3-3-3-3-3--3--3-|
|--0--0-0-0-0-0-0-0-|---------------------|


 Verse
  H       H         H       H         H       H         Q   H       Q
|-----------------|-----------------|-----------------|-----------------|
|---------0-------|-3-------0-------|---------0-------|-----------------|
|-------0---------|-----------------|-2---------------|-2---0-------2---|
|-----0-----0---0-|-----0-----0---0-|-----0-----0---0-|---0-------0-----|
|---2---------2---|---2---2-----2---|---0---0-----0---|-----0---0-----0-|
|-3-------3-------|-3-------3-------|-2-------2-------|-2-----2-----2---|
| E E E E E E E E   E E E E E E E E   E E E E E E E E   E E E E E E E E
|
| PM------------------------------------------------------------------|
| E E E E E E E E   E E E E E E E E   E E E E E E E E   E E E E E E E E
|-----------------|-----------------|-----------------|-----------------|
|-----------------|-----------------|-----------------|-----------------|
|-----------------|-----------------|-7-x-x-x-7-x-x-7-|-7-x-x-x-7-x-x-7-|
|-5-x-x-x-5-x-x-5-|-5-x-x-x-5-x-x-5-|-7-x-x-x-7-x-x-7-|-7-x-x-x-7-x-x-7-|
|-5-x-x-x-5-x-x-5-|-5-x-x-x-5-x-x-5-|-5-5-5-5-5-5-5-5-|-5-5-5-5-5-5-5-5-|
|-3-3-3-3-3-3-3-3-|-3-3-3-3-3-3-3-3-|-----------------|-----------------|


  H       +Q    Q     Q   H       Q     +Q    H.             W
|-------------------|-----------------|--------------------|-----------------|
|---------------0---|-----------------|--------------------|-----------------|
|-0-------(0)-------|-2---0-------2---|-(2)----------------|-----0-------0---|
|-----2---------2---|---2-----------2-|-----2-2--2---2-----|-2-2---2---2---2-|
|---2---2-----2---2-|-----2---2---2---|--3----3----3-----3-|-3-------3-------|
|-0--------0--------|-0-----0---0-----|----------------3---|-----------------|
| E E E E  E  E E E   E E E E E E E E    E  E E  E E E E E   E E E E E E E E
|
| PM-----------------------------------------------------------------------|
| E E E E  E  E E E   E E E E E E E E    E  E E  E E E E E   E E E E E E E E
|-------------------|-----------------|--------------------|-----------------|
|-------------------|-----------------|--------------------|-----------------|
|-------------------|-----------------|--x--5-x--x-5-x-x-x-|-x-5-x-x-5-x-x-x-|
|-2-x-x-x--2--x-x-2-|-2-x-x-x-2-x-x-2-|--x--5-x--x-5-x-x-x-|-x-5-x-x-5-x-x-x-|
|-2-x-x-x--2--x-x-2-|-2-x-x-x-2-x-x-2-|--3--3-3--3-3-3-3-3-|-3-3-3-3-3-3-3-3-|
|-0-0-0-0--0--0-0-0-|-0-0-0-0-0-0-0-0-|--------------------|-----------------|


  H       H         H       H         H       H         Q   H       Q
|-----------------|-----------------|-----------------|-----------------|
|---------0-------|-3-------0-------|---------0-------|-----------------|
|-----------------|-----------------|-2---------------|-2---0-------2---|
|---0---0-----0---|-----0-----0---0-|-----0-----0-----|---0-------0-----|
|-----2-----2---2-|---2---2-----2---|---0-----0-----0-|-----0---0-----0-|
|-3-------3-------|-3-------3-------|-2-----2-----2---|-2-----2-----2---|
| E E E E E E E E   E E E E E E E E   E E E E E E E E   E E E E E E E E
|
| PM------------------------------------------------------------------|
| E E E E E E E E   E E E E E E E E   E E E E E E E E   E E E E E E E E
|-----------------|-----------------|-----------------|-----------------|
|-----------------|-----------------|-----------------|-----------------|
|-----------------|-----------------|-7-x-x-x-7-x-x-7-|-7-x-x-x-7-x-x-7-|
|-5-x-x-x-5-x-x-5-|-5-x-x-x-5-x-x-5-|-7-x-x-x-7-x-x-7-|-7-x-x-x-7-x-x-7-|
|-5-x-x-x-5-x-x-5-|-5-x-x-x-5-x-x-5-|-5-5-5-5-5-5-5-5-|-5-5-5-5-5-5-5-5-|
|-3-3-3-3-3-3-3-3-|-3-3-3-3-3-3-3-3-|-----------------|-----------------|


  H.           E E   H.           E E   +Q    H.
|------------------|------------------|--------------------|-----------------|
|----------------0-|-0----------------|-------0------------|-----------------|
|-0------------2---|------------------|-------0------0---0-|-----0-----------|
|------2-------0---|----2---------0-2-|-(2)-2----2-----2---|---2---2---2---2-|
|----2---2---2---2-|------2---2---2---|--3---------3-------|-3-------3---3---|
|-0--------0-------|-0------0---0---0-|--------------------|-----------------|
| E  E E E E E E E   E  E E E E E E E    E  E E  E E E E E   E E E E E E E E
|
| PM-----------------------------------------------------------------------|
| E  E E E E E E E   E  E E E E E E E    E  E E  E E E E E   E E E E E E E E
|------------------|------------------|--------------------|-----------------|
|------------------|------------------|--------------------|-----------------|
|------------------|------------------|--x--5-x--x-5-x-x-x-|-x-5-x-x-5-x-x-x-|
|-2--x-x-x-2-x-x-2-|-2--x-x-x-2-x-x-2-|--x--5-x--x-5-x-x-x-|-x-5-x-x-5-x-x-x-|
|-2--x-x-x-2-x-x-2-|-2--x-x-x-2-x-x-2-|--3--3-3--3-3-3-3-3-|-3-3-3-3-3-3-3-3-|
|-0--0-0-0-0-0-0-0-|-0--0-0-0-0-0-0-0-|--------------------|-----------------|


  H    H       H     H      H.      Q     Q    Q    E   E  E E
|------0----|-------------|-2-------2--|--2----2---(2)-(2)-----|
|-1---------|--1----------|-3-------3--|--3----3---(3)-(3)-0-3-|
|-2---------|-(2)----2----|-2----------|-(2)--(2)---0---2------|
|-2---------|-(2)---------|-0----------|-(0)--(0)--(0)---------|
|-0---------|-(0)---------|------------|-----------------------|
|-----------|-------------|------------|-----------------------|
  W           +W


  H       E E E E   +H        E E E E
|-----------------|-------------------|
|-3-----------0-3-|-(3)-----------0-5-|
|---0---0-0-2-----|-----2---0-0-2-----|
|-----0-----------|-------0-------0---|
|-------------2---|-------------0-----|
|-3-------3-----2-|-(2)-------2-----0-|
| E E E E Q   E E   +E  E E E E E E E
|
| PM-----------------------------------
| E E E E E E E E    E  E E E E E E E
|-----------------|-------------------|
|-----------------|-------------------|
|-----------------|--7--x-x-x-7-x-x-7-|
|-5-x-x-x-5-x-x-5-|--7--x-x-x-7-x-x-7-|
|-5-x-x-x-5-x-x-5-|--5--5-5-5-5-5-5-5-|
|-3-3-3-3-3-3-3-3-|-------------------|


  +E  E S S E Q   E E   +H        E E E E
|---------------------|--------------------|
|-(5)-3-3-0-------3-0-|-(0)-----------0-3--|
|-----------2-0-------|-----0---0-0-2------|
|-----------------2---|-------2-------2----|
|-------2-----------3-|-(3)-------3--------|
|-(0)---------0-------|-----------------3--|
| +Q    Q     Q   E E   +E  E E E Q   E E
|
|---------------------------------------|
|  E  E E   E E E E E    E  E E E E E E E
|---------------------|--------------------|
|---------------------|--------------------|
|---------------------|--x--5-x-x-5-x-x-x--|
|--2--x-x---x-2-x-x-2-|--x--5-x-x-5-x-x-x--|
|--2--x-x---x-2-x-x-2-|--3--3-3-3-3-3-3-3--|
|--0--0-0---0-0-0-0-0-|--------------------|


  H       E E E E   +E  Q.     E E E E
|-----------------|--------------------|
|-3-----------0-3-|-(3)-0------5-3-0---|
|---0---0-0-2-----|------------------2-|
|-----0-----------|-----0----0-----0---|
|-------------2---|--------0-----------|
|-3-------3-----2-|-(2)--------2-----0-|
| E E E E Q   E E   +E  E  E E Q   E E
|
| PM------------------------------------
| E E E E E E E E    E  E  E E E E E E
|-----------------|--------------------|
|-----------------|--------------------|
|-----------------|--7--x--x-x-7-x-x-7-|
|-5-x-x-x-5-x-x-5-|--7--x--x-x-7-x-x-7-|
|-5-x-x-x-5-x-x-5-|--5--5--5-5-5-5-5-5-|
|-3-3-3-3-3-3-3-3-|--------------------|


  +E  H       E E E    q    q   E E  E  E
|-------------------|---------------------|
|-----------------3-|--3------------------|
|-(2)-0-------2-2---|-------4---2-4--2--2-|
|-------2-0---------|-------2-------------|
|-----2-----2-----3-|-(3)-------3---(3)---|
|-(0)---------0-----|---------------------|
| +E  E E E E Q   E   +Q    Q   Q   +Q
|
|---------------------------------------|
|  E  E E E E E E E    E  E E E E E  E  E
|-------------------|---------------------|
|-------------------|---------------------|
|-------------------|--x--5-x-x-5-x--x--x-|
|--2--x-x-x-2-x-x-2-|--x--5-x-x-5-x--x--x-|
|--2--x-x-x-2-x-x-2-|--3--3-3-3-3-3--3--3-|
|--0--0-0-0-0-0-0-0-|---------------------|


  Q=100
  S S S S S S H    +E    S S S S S S H    +E
|----------------------|----------------------|
|-0-----0-----0----(0)-|-0-----0-----0----(0)-|
|---0-----0------------|---0-----0------------|
|-2---2-----2----------|-2---2-----2----------|
|-2--------------------|-3-----3--------------|
|-0-----0--------------|----------------------|


  S S S S S S H    +E    S S S S S S S S S S S S S S S S
|----------------------|-----------------------------------|
|----------------------|-----------------------------------|
|-0-----0-----0----(0)-|-2-----2-----2-----2-----2---------|
|---0-----0------------|---0-----0-----0-----0-----0-------|
|-2---2-----2----------|-0---0-----0-----0-----0-----0-----|
|-3-----3--------------|-2-----2-----------------------2---|


  Q=120
  Q   Q   Q   Q     H.           Q     Q   H.             W
|-----0-----------|--------------0---|------------------|-2---------------|
|-1-------1-------|-3----------------|-3---1------------|-3---3-----------|
|-2---2-------2---|-2--2---------2---|-----0--------0---|-2-2---2-------2-|
|-2-2---2---2---2-|-0----0-4---4---4-|---2----2---2---2-|-0-------4---4---|
|-0-------0---0---|----------5-------|-3--------3-------|-----------5-----|
|-----------------|------------------|------------------|-----------------|
  E E E E E E E E   E  E E E E E E E   E E E  E E E E E   E E E E E E E E


  Q=120
  H       E E E E   +H        E E E E
|-----------------|-------------------|
|-3-----------0-3-|-(3)-----------0-5-|
|---0---0-0-2-----|-----2---0-0-2-----|
|-----0-----------|-------0-------0---|
|-------------2---|-------------0-----|
|-3-------3-----2-|-(2)-------2-----0-|
| E E E E Q   E E   +E  E E E E E E E
|
| PM-----------------------------------
| E E E E E E E E    E  E E E E E E E
|-----------------|-------------------|
|-----------------|-------------------|
|-----------------|--7--x-x-x-7-x-x-7-|
|-5-x-x-x-5-x-x-5-|--7--x-x-x-7-x-x-7-|
|-5-x-x-x-5-x-x-5-|--5--5-5-5-5-5-5-5-|
|-3-3-3-3-3-3-3-3-|-------------------|


  +E  E S S E Q   E E   +H        E E E E
|---------------------|--------------------|
|-(5)-3-3-0-------3-0-|-(0)-----------0-3--|
|-----------2-0-------|-----0---0-0-2------|
|-----------------2---|-------2-------2----|
|-------2-----------3-|-(3)-------3--------|
|-(0)---------0-------|-----------------3--|
| +Q    Q     Q   E E   +E  E E E Q   E E
|
|---------------------------------------|
|  E  E E   E E E E E    E  E E E E E E E
|---------------------|--------------------|
|---------------------|--------------------|
|---------------------|--x--5-x-x-5-x-x-x--|
|--2--x-x---x-2-x-x-2-|--x--5-x-x-5-x-x-x--|
|--2--x-x---x-2-x-x-2-|--3--3-3-3-3-3-3-3--|
|--0--0-0---0-0-0-0-0-|--------------------|


  H       E E E E   +E  Q.     E E E E
|-----------------|--------------------|
|-3-----------0-3-|-(3)-0------5-3-0---|
|---0---0-0-2-----|------------------2-|
|-----0-----------|-----0----0-----0---|
|-------------2---|--------0-----------|
|-3-------3-----2-|-(2)--------2-----0-|
| E E E E Q   E E   +E  E  E E Q   E E
|
| PM------------------------------------
| E E E E E E E E    E  E  E E E E E E
|-----------------|--------------------|
|-----------------|--------------------|
|-----------------|--7--x--x-x-7-x-x-7-|
|-5-x-x-x-5-x-x-5-|--7--x--x-x-7-x-x-7-|
|-5-x-x-x-5-x-x-5-|--5--5--5-5-5-5-5-5-|
|-3-3-3-3-3-3-3-3-|--------------------|


  +E  H       E E E    q    q   E E  E  E
|-------------------|---------------------|
|-----------------3-|--3------------------|
|-(2)-0-------2-2---|-------4---2-4--2--0-|
|-------2-0---------|-------2-------------|
|-----2-----2-----3-|-(3)-------3---(3)---|
|-(0)---------0-----|---------------------|
| +E  E E E E Q   E   +Q    Q   Q   +Q
|
|---------------------------------------|
|  E  E E E E E E E    E  E E E E E  E  E
|-------------------|---------------------|
|-------------------|---------------------|
|-------------------|--x--5-x-x-5-x--x--x-|
|--2--x-x-x-2-x-x-2-|--x--5-x-x-5-x--x--x-|
|--2--x-x-x-2-x-x-2-|--3--3-3-3-3-3--3--3-|
|--0--0-0-0-0-0-0-0-|---------------------|


              ~~~
  W          +W
|-3--------|-(3)----|
|-3--------|-(3)----|
|-0--------|-(0)----|
|-0--------|-(0)----|
|-2--------|-(2)----|
|-3--------|-(3)----|
|
|             ~~~
| W          +W
|-3--------|-(3)----|
|-3--------|-(3)----|
|-4--------|-(4)----|
|-5--------|-(5)----|
|-5--------|-(5)----|
|-3--------|-(3)----|


Duration Legend
---------------
W - whole; H - half; Q - quarter; E - 8th; S - 16th; T - 32nd; X - 64th; a - acciaccatura
+ - note tied to previous; . - note dotted; .. - note double dotted
Uncapitalized letters represent notes that are staccato (1/2 duration)
Irregular groupings are notated above the duration line
Duration letters will always appear directly above the note/fret number it represents the
duration for.  Duration letters with no fret number below them represent rests.  Multi-
bar rests are notated in the form Wxn, where n is the number of bars to rest for.  Low
melody durations appear below the staff

Tablature Legend
----------------
 h   - hammer-on
 p   - pull-off
 b   - bend
 pb  - pre-bend
 r   - bend release (if no number after the r, then release immediately)
 /\  - slide into or out of (from/to "nowhere")
 s   - legato slide
 S   - shift slide
<n>  - natural harmonic
[n]  - artificial harmonic
n(n) - tapped harmonic
 ~   - vibrato
 tr  - trill
 T   - tap
 TP  - trem. picking
 PM  - palm muting
\n/  - tremolo bar dip; n = amount to dip
 \n  - tremolo bar down
 n/  - tremolo bar up
/n\  - tremolo bar inverted dip
 =   - hold bend; also acts as connecting device for hammers/pulls
 <>  - volume swell (louder/softer)
 x   - on rhythm slash represents muted slash
 o   - on rhythm slash represents single note slash

Misc Legend
-----------
 |  - bar
||  - double bar
||o - repeat start
o|| - repeat end
*|  - double bar (ending)
 :  - bar (freetime)
 $  - Segno
 &  - Coda
Tempo markers - <E/E./Q/Q./H/H.> = BPM(8/16=s8/s16), where s8 = swing 8ths, s16 = swing 16ths
comments
print report bad tab
I want to post or [tab]
guest
You may want to rate the tab now too:
select rating
Please do not post tabs as comments. Select "correction" instead!