Oops, an error
Loading. Please wait.

Calling All Corpses Tab

ver1
ver1

Album

Whole song

More versions @911Tabs.com
597 views 1 this week
no commentswrite comment
1 2 3 4 5
excellent!
x 4
Autoscroll
+/-
esc
set tempo
stop
Contributor
WARNING: You are trying to view
                                    content from Ultimate-Guitar.com
                                    in an unauthorized application,
                                    which is prohibited.

                                    Please use an official Ultimate
                                    Guitar Tabs application for iPhone,
                                    iPad or Android to access legitimate
                                    chords, guitar, bass, and drum tabs
                                    from Ultimate-Guitar.com database.

                                    Type "ultimate guitar tabs" in Apple
                                    App Store's or Android Market's
                                    search to find the application.
This album tab is made by:

-  LivingDead31
-  MetalRock4ever
-  lukkysix

You can find these tabs singly on our profiles. If you have any question, just mail to us.




1. Blood Fades To Black


Tuning: DGCFAD

Intro by Solos:
Solo 1:
D|-2~-|
A|-3~-|
F|----|
C|----|
G|----|
D|----|

Solo 2:
D|----/10~-|
A|-3/------|
F|---------|
C|---------|
G|---------|
D|---------|

Rest of the Piece:
(Repeat all parts until the end of the piece)

Rhythm Guitar:
(Listen to music for rhythm)
D|-2--3--7--5--2--3--10--10--|
A|-2--3--7--5--2--3--10--10--|
F|-2--3--7--5--2--3--10--10--|   
C|-4--5--9--7--4--5--12--12--|  
G|-4--5--9--7--4--5--12--12--|
D|-2--3--7--5--2--3--10--10--|

Solo 1:
D|-2222-3333-7777-5555--2222-3333-----------|
A|-3333-3333-3333-3333--3333-3333-3333-3333-|
F|------------------------------------------|
C|------------------------------------------|
G|------------------------------------------|
D|------------------------------------------|

Solo Part 2:
D|----10~-------|
A|-3~-----3~-3~-|
F|--------------|
C|--------------|
G|--------------|
D|--------------|

Solo Part 3:
(Listen for this part, it comes near the end of each phrase)
D|-0-------|
A|---3-----|
F|-----2---|
C|-------0-|
G|---------|
D|---------|


End on:
D|-10~-|
A|-10~-|
F|-10~-|
C|-12~-|
G|-12~-|
D|-10~-|

Solo Parts:
D|-2~-|
A|-3~-|
F|----|
C|----|
G|----|
D|----|


2. I Wanna Be Cremated

Tuning:CGCFAD

Intro:
D|------------------|
A|------------------|
F|------------------|
C|------------------|  x2
G|------------------|
C|-0-02-4-5-5-5-2-0-|

D|--------------------------|
A|--------------------------|
F|--------------------------|
C|--------------------------|  
G|--------------------------|
C|-0-02-4-5-5-5-2-7777-9999-|

D|------------------|
A|------------------|
F|------------------|
C|-0-02-4-5-5-5-2-0-|  x2
G|-0-02-4-5-5-5-2-0-|
C|-0-02-4-5-5-5-2-0-|

D|--------------------------|
A|--------------------------|
F|--------------------------|
C|-0-02-4-5-5-5-2-7777-9999-|
G|-0-02-4-5-5-5-2-7777-9999-|
C|-0-02-4-5-5-5-2-7777-9999-|

Solo Part:
D|----5~-|
A|-3~----|
F|-------|
C|-------|
G|-------|
C|-------|

D|----------------------------|
A|----------------------------|
F|----------11-12-12-12h11----|
C|-12-12-14----------------14-|  x2
G|----------------------------|
C|----------------------------|

D|-----------------------|
A|-------7-8-8-7-8---10~-|
F|-7-7-9-----------9-----|
C|-----------------------|  
G|-----------------------|
C|-----------------------|


Verse:
(Listen to the music for the rhythm)
D|----------------------------------------------|
A|----------------------------------------------|
F|----------------------------------------------|
C|-0x0x0x0x0x0x0x0x-0x-5-0x0x-5x-0x0x-5x-0x-5h7-|  x2
G|-0x0x0x0x0x0x0x0x-0x-5-0x0x-5x-0x0x-5x-0x-5h7-|
C|-0x0x0x0x0x0x0x0x-0x-5-0x0x-5x-0x0x-5x-0x-5h7-|

D|-------------------------------------------------|
A|-------------------------------------------------|
F|-------------------------------------------------|
C|-0x0x0x0x0x0x0x0x-0x-5-0x0x-5x-0x0x-5x-9999-7777-|
G|-0x0x0x0x0x0x0x0x-0x-5-0x0x-5x-0x0x-5x-9999-7777-|
C|-0x0x0x0x0x0x0x0x-0x-5-0x0x-5x-0x0x-5x-9999-7777-|

D|----------------------------------------------|
A|----------------------------------------------|
F|----------------------------------------------|
C|-0x0x0x0x0x0x0x0x-0x-5-0x0x-5x-0x0x-5x-0x-5h7-|  x2
G|-0x0x0x0x0x0x0x0x-0x-5-0x0x-5x-0x0x-5x-0x-5h7-|
C|-0x0x0x0x0x0x0x0x-0x-5-0x0x-5x-0x0x-5x-0x-5h7-|

D|-------------------------------------------------|
A|-------------------------------------------------|
F|-------------------------------------------------|
C|-0x0x0x0x0x0x0x0x-0x-5-0x0x-5x-0x0x-5x-9999-7777-|
G|-0x0x0x0x0x0x0x0x-0x-5-0x0x-5x-0x0x-5x-9999-7777-|
C|-0x0x0x0x0x0x0x0x-0x-5-0x0x-5x-0x0x-5x-9999-7777-|


Pre-Chorus:
D|-------------------------------------------|
A|-------------------------------------------|
F|-------------------------------------------|
C|-5555-5555-5555-5555-0x0x0x-555-0x0x0x-555-|
G|-5555-5555-5555-5555-0x0x0x-555-0x0x0x-555-|
C|-5555-5555-5555-5555-0x0x0x-555-0x0x0x-555-|

D|-----------------------------------------|
A|-----------------------------------------|
F|-----------------------------------------|
C|-5555-5555-5555-5555-7777-7777-7777-7777-|
G|-5555-5555-5555-5555-7777-7777-7777-7777-|
C|-5555-5555-5555-5555-7777-7777-7777-7777-|


Chorus:
D|------------------|
A|------------------|
F|------------------|
C|-0-02-4-5-5-5-2-0-|  x2
G|-0-02-4-5-5-5-2-0-|
C|-0-02-4-5-5-5-2-0-|

D|--------------------------|
A|--------------------------|
F|--------------------------|
C|-0-02-4-5-5-5-2-7777-9999-|
G|-0-02-4-5-5-5-2-7777-9999-|
C|-0-02-4-5-5-5-2-7777-9999-|

D|------------------|
A|------------------|
F|------------------|
C|-0-02-4-5-5-5-2-0-|  x2
G|-0-02-4-5-5-5-2-0-|
C|-0-02-4-5-5-5-2-0-|

D|--------------------------|
A|--------------------------|
F|--------------------------|
C|-0-02-4-5-5-5-2-7777-9999-|
G|-0-02-4-5-5-5-2-7777-9999-|
C|-0-02-4-5-5-5-2-7777-9999-|


Pre-Verse: 
D|----------------------------------------------|
A|----------------------------------------------|
F|----------------------------------------------|
C|-0x0x0x0x0x0x0x0x-0x-5-0x0x-5x-0x0x-5x-0x-5h7-|  x2
G|-0x0x0x0x0x0x0x0x-0x-5-0x0x-5x-0x0x-5x-0x-5h7-|
C|-0x0x0x0x0x0x0x0x-0x-5-0x0x-5x-0x0x-5x-0x-5h7-|

D|-------------------------------------------------|
A|-------------------------------------------------|
F|-------------------------------------------------|
C|-0x0x0x0x0x0x0x0x-0x-5-0x0x-5x-0x0x-5x-9999-7777-|
G|-0x0x0x0x0x0x0x0x-0x-5-0x0x-5x-0x0x-5x-9999-7777-|
C|-0x0x0x0x0x0x0x0x-0x-5-0x0x-5x-0x0x-5x-9999-7777-|


Verse 2:
D|----------------------------------------------|
A|----------------------------------------------|
F|----------------------------------------------|
C|-0x0x0x0x0x0x0x0x-0x-5-0x0x-5x-0x0x-5x-0x-5h7-|  x2
G|-0x0x0x0x0x0x0x0x-0x-5-0x0x-5x-0x0x-5x-0x-5h7-|
C|-0x0x0x0x0x0x0x0x-0x-5-0x0x-5x-0x0x-5x-0x-5h7-|

D|-------------------------------------------------|
A|-------------------------------------------------|
F|-------------------------------------------------|
C|-0x0x0x0x0x0x0x0x-0x-5-0x0x-5x-0x0x-5x-9999-7777-|
G|-0x0x0x0x0x0x0x0x-0x-5-0x0x-5x-0x0x-5x-9999-7777-|
C|-0x0x0x0x0x0x0x0x-0x-5-0x0x-5x-0x0x-5x-9999-7777-|

D|----------------------------------------------|
A|----------------------------------------------|
F|----------------------------------------------|
C|-0x0x0x0x0x0x0x0x-0x-5-0x0x-5x-0x0x-5x-0x-5h7-|  x2
G|-0x0x0x0x0x0x0x0x-0x-5-0x0x-5x-0x0x-5x-0x-5h7-|
C|-0x0x0x0x0x0x0x0x-0x-5-0x0x-5x-0x0x-5x-0x-5h7-|

D|-------------------------------------------------|
A|-------------------------------------------------|
F|-------------------------------------------------|
C|-0x0x0x0x0x0x0x0x-0x-5-0x0x-5x-0x0x-5x-9999-7777-|
G|-0x0x0x0x0x0x0x0x-0x-5-0x0x-5x-0x0x-5x-9999-7777-|
C|-0x0x0x0x0x0x0x0x-0x-5-0x0x-5x-0x0x-5x-9999-7777-|


Pre-Chorus:
D|-------------------------------------------|
A|-------------------------------------------|
F|-------------------------------------------|
C|-5555-5555-5555-5555-0x0x0x-555-0x0x0x-555-|
G|-5555-5555-5555-5555-0x0x0x-555-0x0x0x-555-|
C|-5555-5555-5555-5555-0x0x0x-555-0x0x0x-555-|

D|-----------------------------------------|
A|-----------------------------------------|
F|-----------------------------------------|
C|-5555-5555-5555-5555-7777-7777-7777-7777-|
G|-5555-5555-5555-5555-7777-7777-7777-7777-|
C|-5555-5555-5555-5555-7777-7777-7777-7777-|


Chorus 2:
D|------------------|
A|------------------|
F|------------------|
C|-0-02-4-5-5-5-2-0-|  x2
G|-0-02-4-5-5-5-2-0-|
C|-0-02-4-5-5-5-2-0-|

D|--------------------------|
A|--------------------------|
F|--------------------------|
C|-0-02-4-5-5-5-2-7777-9999-|
G|-0-02-4-5-5-5-2-7777-9999-|
C|-0-02-4-5-5-5-2-7777-9999-|

D|------------------|
A|------------------|
F|------------------|
C|-0-02-4-5-5-5-2-0-|  x2
G|-0-02-4-5-5-5-2-0-|
C|-0-02-4-5-5-5-2-0-|

D|--------------------------|
A|--------------------------|
F|--------------------------|
C|-0-02-4-5-5-5-2-7777-9999-|
G|-0-02-4-5-5-5-2-7777-9999-|
C|-0-02-4-5-5-5-2-7777-9999-|


Bridge:
D|------------------|
A|------------------|
F|------------------|
C|-0-02-4-5-5-5-2-0-|  x2
G|-0-02-4-5-5-5-2-0-|
C|-0-02-4-5-5-5-2-0-|

D|--------------------------|
A|--------------------------|
F|--------------------------|
C|-0-02-4-5-5-5-2-7777-9999-|
G|-0-02-4-5-5-5-2-7777-9999-|
C|-0-02-4-5-5-5-2-7777-9999-|

D|------------------|
A|------------------|
F|------------------|
C|-0-02-4-5-5-5-2-0-|  x2
G|-0-02-4-5-5-5-2-0-|
C|-0-02-4-5-5-5-2-0-|

D|--------------------------|
A|--------------------------|
F|--------------------------|
C|-0-02-4-5-5-5-2-7777-9999-|
G|-0-02-4-5-5-5-2-7777-9999-|
C|-0-02-4-5-5-5-2-7777-9999-|

Solo Part:
D|----------------------------------7------|
A|---------7-8-8------------7-8-8-----10b~-|
F|-\-7-7-9-------9-7--7-7-9-------9--------|
C|-----------------------------------------|
G|-----------------------------------------|
C|-----------------------------------------|

D|-----------------15-14--------17-15-14-----|
A|-------7-8-8-8---------15--------------15~-|
F|-7-7-9---------9----------14~--------------|
C|-------------------------------------------|
G|-------------------------------------------|
C|-------------------------------------------|

(I'm not sure about the solo for this part.)
D|------10~-8~----------3b-3-1-0-1-5h3-1-3~-|
A|-5b-3--------5-5b-3b~---------------------|
F|------------------------------------------|
C|------------------------------------------|
G|------------------------------------------|
C|------------------------------------------|

D|-5---3---2------------|
A|---3---3---3-5h3-2-3~-|
F|----------------------|
C|----------------------|
G|----------------------|
C|----------------------|


Pre-Chorus:
D|------------------|
A|------------------|
F|------------------|
C|------------------|  x2
G|------------------|
C|-0-02-4-5-5-5-2-0-|

D|--------------------------|
A|--------------------------|
F|--------------------------|
C|----------------7777-9999-|  
G|----------------7777-9999-|
C|-0-02-4-5-5-5-2-7777-9999-|

Solo Part:
D|------5~-|
A|-3~---3~-|
F|---------|
C|---------|
G|---------|
C|---------|


Final Chorus:
D|------------------|
A|------------------|
F|------------------|
C|-0-02-4-5-5-5-2-0-|  x2
G|-0-02-4-5-5-5-2-0-|
C|-0-02-4-5-5-5-2-0-|

D|--------------------------|
A|--------------------------|
F|--------------------------|
C|-0-02-4-5-5-5-2-7777-9999-|
G|-0-02-4-5-5-5-2-7777-9999-|
C|-0-02-4-5-5-5-2-7777-9999-|

D|------------------|
A|------------------|
F|------------------|
C|-0-02-4-5-5-5-2-0-|  x2
G|-0-02-4-5-5-5-2-0-|
C|-0-02-4-5-5-5-2-0-|

D|--------------------------|
A|--------------------------|
F|--------------------------|
C|-0-02-4-5-5-5-2-7777-9999-|
G|-0-02-4-5-5-5-2-7777-9999-|
C|-0-02-4-5-5-5-2-7777-9999-|


Outro:
D|------------------|
A|------------------|
F|------------------|
C|------------------|  x2
G|------------------|
C|-0-02-4-5-5-5-2-0-|

D|-----------------------------|
A|-----------------------------|
F|-----------------------------|
C|----------------7777-9999-0~-|  
G|----------------7777-9999-0~-|
C|-0-02-4-5-5-5-2-7777-9999-0~-|

Solo Part:
D|-----2~--5~--2~--|
A|-3~--3~--3~--3~--|
F|-----------------|
C|-----------------|
G|-----------------|
C|-----------------|



3. Ghoul of My Dreams


Tuning: CGCFAD

[ Intro ]

D---------------------------------------|
A---------------------------------------|
F---------------------------------------|
C---5-------7-------5-5-5-5-5-5-5-------|
G---5-------5-------3-3-3-3-3-3-3-------|
C---5-----------------------------------|

D---------------------------------------|
A---------------------------------------|
F---------------------------------------|
C---5--5-5--5--5-----5-5-5-5-5-5-5------|
G---5--5-5--5--5-----3-3-3-3-3-3-3------|
C---5--5-5--5--5------------------------| (x2)

D-----------------------------------------------|
A-----------------------------------------------|
F-----------------------------------------------|
C---5--5-5--5--5-----5-5-5-5-5-5-5---7--7--7--7-|
G---5--5-5--5--5-----3-3-3-3-3-3-3---5--5--5--5-|
C---5--5-5--5--5--------------------------------|

D----------------------|
A----------------------|
F----------------------|
C---5-5-5-5-5-5-5-5----|
G---3-3-3-3-3-3-3-3----|
C----------------------|

[ Verse ]

D-----------------------------|
A-----------------------------|
F-----------------------------|
C---3/5-5-5-5-5-5-5-5-5-------|
G---3/5-5-5-5-5-5-5-5-5-------|
C---3/5-5-5-5-5-5-5-5-5-------| (x3)


D----------------------------------------------------|
A----------------------------------------------------|
F----------------------------------------------------|
C---3-5-3-5-3-5-3-5-0-0-0-0-0-0-0-0--7-7-7-7-7-7-7-7-|
G---3-5-3-5-3-5-3-5-0-0-0-0-0-0-0-0--5-5-5-5-5-5-5-5-|
C---3-5-3-5-3-5-3-5-0-0-0-0-0-0-0-0------------------|

[ Chorus ]

D---------------------------------------|
A---------------------------------------|
F---------------------------------------|
C---5--5-5--5--5-----5-5-5-5-5-5-5------|
G---5--5-5--5--5-----3-3-3-3-3-3-3------|
C---5--5-5--5--5------------------------| (x2)

D-----------------------------------------------|
A-----------------------------------------------|
F-----------------------------------------------|
C---5--5-5--5--5-----5-5-5-5-5-5-5---7--7--7--7-|
G---5--5-5--5--5-----3-3-3-3-3-3-3---5--5--5--5-|
C---5--5-5--5--5--------------------------------|

D--------------------|
A--------------------|
F--------------------|
C---5-5-5-5-5-5-5-5--|
G---3-3-3-3-3-3-3-3--|
C--------------------|

[Verse]x2
[Chorus]x2

[ Part:  2:06-2:40 ]

D---------------------------------------|
A---------------------------------------|
F---------------------------------------|
C---5--5-5--5--5-----5-5-5-5-5-5-5------|
G---5--5-5--5--5-----3-3-3-3-3-3-3------|
C---5--5-5--5--5------------------------| (x2)

D-----------------------------------------------|
A-----------------------------------------------|
F-----------------------------------------------|
C---5--5-5--5--5-----5-5-5-5-5-5-5---7--7--7--7-|
G---5--5-5--5--5-----3-3-3-3-3-3-3---5--5--5--5-|
C---5--5-5--5--5--------------------------------|

D--------------------|
A--------------------|
F--------------------|
C---5-5-5-5-5-5-5-5--|
G---3-3-3-3-3-3-3-3--|
C--------------------| (repeat this part 3x)

D---------------------------------------|
A---------------------------------------|
F---------------------------------------|
C---5-------7-------5-5-5-5-5-5-5-------|
G---5-------5-------3-3-3-3-3-3-3-------|
C---5-----------------------------------|

[Chorus] x4



4. One Knife Stand

Tuning: DADGBE

Intro:
E|---------------------|
B|---------------------|
G|---------------------|
D|-7777-4444-0000-2222-|  x4
A|-7777-4444-0000-2222-|
D|-7777-4444-0000-2222-|

Solo/Riff:
(Not sure about the right pitch. Play one or the other)
E|--------------------------------------------------|
B|-10~-10-12-14-10~-10-12-14-10~-10-12-14-12/14-12b-|
G|--------------------------------------------------|
D|--------------------------------------------------|  x4
A|--------------------------------------------------|
D|--------------------------------------------------|

or

E|---------------------------------------|
B|---------------------------------------|
G|---------------------------------------|
D|-7~-7-9-11-7~-7-9-11-7~-7-9-11-9/11-9b-|  x4
A|---------------------------------------|
D|---------------------------------------|


Verse:
E|-------------------------------------|
B|-------------------------------------|
G|-------------------------------------|
D|-7x7x7x7x-4x4x4x4x-0x0x0x0x-2x2x2x2x-|  x4
A|-7x7x7x7x-4x4x4x4x-0x0x0x0x-2x2x2x2x-|
D|-7x7x7x7x-4x4x4x4x-0x0x0x0x-2x2x2x2x-|


Pre-Chorus:
(Listen to music for rhythm)
|---------------------------------------|
|---------------------------------------|
|---------------------------------------|
|-0000-44-2222-44-22-0000-44-2222-44-66-|
|-0000-44-2222-44-22-0000-44-2222-44-66-|
|-0000-44-2222-44-22-0000-44-2222-44-66-|


Chorus:
E|---------------------|
B|---------------------|
G|---------------------|
D|-7777-4444-0000-2222-|  x4
A|-7777-4444-0000-2222-|
D|-7777-4444-0000-2222-|

Solo Part:
(Go up to see the riff down an octave)
E|--------------------------------------------------|
B|-10~-10-12-14-10~-10-12-14-10~-10-12-14-12/14-12b-|
G|--------------------------------------------------|
D|--------------------------------------------------|  x4
A|--------------------------------------------------|
D|--------------------------------------------------|


Verse 2:
E|-------------------------------------|
B|-------------------------------------|
G|-------------------------------------|
D|-7x7x7x7x-4x4x4x4x-0x0x0x0x-2x2x2x2x-|  x4
A|-7x7x7x7x-4x4x4x4x-0x0x0x0x-2x2x2x2x-|
D|-7x7x7x7x-4x4x4x4x-0x0x0x0x-2x2x2x2x-|


Pre-Chorus 2:
(Listen to music for rhythm)
|---------------------------------------|
|---------------------------------------|
|---------------------------------------|
|-0000-44-2222-44-22-0000-44-2222-44-66-|
|-0000-44-2222-44-22-0000-44-2222-44-66-|
|-0000-44-2222-44-22-0000-44-2222-44-66-|


Chorus 2:
E|---------------------|
B|---------------------|
G|---------------------|
D|-7777-4444-0000-2222-|  x4
A|-7777-4444-0000-2222-|
D|-7777-4444-0000-2222-|

Solo Part:
(Go up to see the riff down an octave)
E|--------------------------------------------------|
B|-10~-10-12-14-10~-10-12-14-10~-10-12-14-12/14-12b-|
G|--------------------------------------------------|
D|--------------------------------------------------|  x4
A|--------------------------------------------------|
D|--------------------------------------------------|


Bridge:
E|---------------------|
B|---------------------|
G|---------------------|
D|-7777-4444-0000-2222-|  x4
A|-7777-4444-0000-2222-|
D|-7777-4444-0000-2222-|

Solo Part:
(Not sure about the harmonies. Play the notes on the G string if 
you think the harmony is wrong)
E|-----------------------------------------------|
B|-------------------------------------10-8------|
G|-9999-6666-7-6-0/2-4~-9999-6666-7777------9-9~-|
D|-7777-4444------------7777-4444-7777-----------|
A|-----------------------------------------------|
D|-----------------------------------------------|

Solo Part 2:
E|----------------------------------------12-10---------12~-14~-16~-17~-|
B|-10~-10-12-14-10~-10-12-14-10~-10-12-14-------14--10~-----------------|
G|----------------------------------------------------------------------|
D|----------------------------------------------------------------------|
A|----------------------------------------------------------------------|
D|----------------------------------------------------------------------|

or

E|--------------------------------------------------------|
B|--------------------------------------------------------|
G|-------------------------------9-7-------9~-11~-13~-14~-|
D|-7~-7-9-11-7~-7-9-11-7~-7-9-11-----11-7~----------------|
A|--------------------------------------------------------|
D|--------------------------------------------------------|


Pre-Chorus 3:
(Listen to music for rhythm)
|---------------------------------------|
|---------------------------------------|
|---------------------------------------|
|-0000-44-2222-44-22-0000-44-2222-44-66-|
|-0000-44-2222-44-22-0000-44-2222-44-66-|
|-0000-44-2222-44-22-0000-44-2222-44-66-|


Final Chorus:
(Repeat and fade out)
E|---------------------|
B|---------------------|
G|---------------------|
D|-7777-4444-0000-2222-|  x8
A|-7777-4444-0000-2222-|
D|-7777-4444-0000-2222-|

Solo Part:
E|--------------------------------------------------|
B|-10~-10-12-14-10~-10-12-14-10~-10-12-14-12/14-12b-|
G|--------------------------------------------------|
D|--------------------------------------------------|  x8
A|--------------------------------------------------|
D|--------------------------------------------------|

or

E|---------------------------------------|
B|---------------------------------------|
G|---------------------------------------|
D|-7~-7-9-11-7~-7-9-11-7~-7-9-11-9/11-9b-|  x8
A|---------------------------------------|
D|---------------------------------------|


5. Calling All Corpses


Tuning: CGCFAD

Intro:
D|-------------------|
A|-------------------|
F|-7~-5-7~-10~-8~-7~-|
C|-7~-5-7~-10~-8~-7~-|  x4
G|-5~-3-5~-8~--6~-5~-|
C|-------------------|

D|---------------------|
A|---------------------|
F|---------------------|
C|-3x3x3x3x-5x5x5x5x-0-|
G|-3x3x3x3x-5x5x5x5x-0-|
C|-3x3x3x3x-5x5x5x5x-0-|


Verse:
(Either play chords or play one of the octaves on the C strings)
D|------------------------------------------|
A|------------------------------------------|
F|------------------------------------------|
C|-12x12x12x0-12x12x12x0-0x0x0x0-12x12x12x0-|
G|-12x12x12x0-12x12x12x0-0x0x0x0-12x12x12x0-|
C|-12x12x12x0-12x12x12x0-0x0x0x0-12x12x12x0-|


Pre-Chorus:
(You can choose which octave you want to play for the 5)
D|---------------------------------------|
A|---------------------------------------|
F|---------------------------------------|
C|-0x0x0x0x-0x0x0x0x-0x0x0x0x-0x0x-30-5+-|  x3
G|-0x0x0x0x-0x0x0x0x-0x0x0x0x-0x0x-30-5+-|
C|-0x0x0x0x-0x0x0x0x-0x0x0x0x-0x0x-30-5+-|

D|-------------------------------------|
A|-------------------------------------|
F|-------------------------------------|
C|-0x0x0x0x-0x0x0x0x-0x0x0x0x-0x0x0x0x-|
G|-0x0x0x0x-0x0x0x0x-0x0x0x0x-0x0x0x0x-|
C|-0x0x0x0x-0x0x0x0x-0x0x0x0x-0x0x0x0x-|


Chorus:
D|-------------------|
A|-------------------|
F|-7~-5-7~-10~-8~-7~-|
C|-7~-5-7~-10~-8~-7~-|  x4
G|-5~-3-5~-8~--6~-5~-|
C|-------------------|


Bridge:
|----------------------|
|----------------------|
|-5555-7777------------|
|-5555-7777-33-11-0000-|  x8
|-3333-5555-33-11-0000-|
|-----------33-11-0000-|

Solo Part:
(I'm not sure with most of the solo)
|-8-8-10-10-5b-5b-4/5~----------------------------------|
|------------------------------1-3b~-6h8-6h8-5h6-5h6-3~-|
|------------------------0-2-3--------------------------|
|----------------------3--------------------------------|
|-------------------------------------------------------|
|-------------------------------------------------------|

|-------------10-10-10~--10-/10--------------------------------/10-10~-|
|-------------10-10-8h10-8--------------1-3-6-6h8-6h8-6h8-6h8----------|
|-5-55-5-7-7~---------------------0-2h3--------------------------------|
|-------------------------------3--------------------------------------|
|----------------------------------------------------------------------|
|----------------------------------------------------------------------|


Pre-Verse:
D|---------------------|
A|---------------------|
F|---------------------|
C|-3x3x3x3x-5x5x5x5x-0-|
G|-3x3x3x3x-5x5x5x5x-0-|
C|-3x3x3x3x-5x5x5x5x-0-|


Verse 2:
(Either play chords or play one of the octaves on the C strings)
D|------------------------------------------|
A|------------------------------------------|
F|------------------------------------------|
C|-12x12x12x0-12x12x12x0-0x0x0x0-12x12x12x0-|
G|-12x12x12x0-12x12x12x0-0x0x0x0-12x12x12x0-|
C|-12x12x12x0-12x12x12x0-0x0x0x0-12x12x12x0-|


Pre-Chorus:
(Either play chords or play one of the octaves on the C strings)
D|---------------------------------------|
A|---------------------------------------|
F|---------------------------------------|
C|-0x0x0x0x-0x0x0x0x-0x0x0x0x-0x0x-30-5+-|  x3
G|-0x0x0x0x-0x0x0x0x-0x0x0x0x-0x0x-30-5+-|
C|-0x0x0x0x-0x0x0x0x-0x0x0x0x-0x0x-30-5+-|

D|-------------------------------------|
A|-------------------------------------|
F|-------------------------------------|
C|-0x0x0x0x-0x0x0x0x-0x0x0x0x-0x0x0x0x-|
G|-0x0x0x0x-0x0x0x0x-0x0x0x0x-0x0x0x0x-|
C|-0x0x0x0x-0x0x0x0x-0x0x0x0x-0x0x0x0x-|


Final Chorus:
D|-------------------|
A|-------------------|
F|-7~-5-7~-10~-8~-7~-|
C|-7~-5-7~-10~-8~-7~-|  x3
G|-5~-3-5~-8~--6~-5~-|
C|-------------------|

D|-----------------------|
A|-----------------------|
F|-7~-5-7~-10~-8~-77-5-7-|
C|-7~-5-7~-10~-8~-77-5-7-|
G|-5~-3-5~-8~--6~-55-3-5-|
C|-----------------------|



6. Miss Morgue


[ Intro ] (Guitar 1)

D----------------------------------------|
A----------------------------------------|
F----------------------------------------|
C---7-----5-----4----2-----2-2-2-2-2-2-2-|
G---7-----5-----4----2-----2-2-2-2-2-2-2-|
C---7-----5-----4----2-----2-2-2-2-2-2-2-|

[ Riff 1 - 0:12-0:34 ]


D-----------------------------------|
A-----------------------------------|
F-----------------------------------|
C---7--7-7--7--7-7--7--7-7--7-7-7-7-|
G---7--7-7--7--7-7--7--7-7--7-7-7-7-|
C---7--7-7--7--7-7--7--7-7--7-7-7-7-|

D-----------------------------------|
A-----------------------------------|
F-----------------------------------|
C---5--5-5--5--5-5--5--5-5--5-5-5-5-|
G---5--5-5--5--5-5--5--5-5--5-5-5-5-|
C---5--5-5--5--5-5--5--5-5--5-5-5-5-|

D----------------------------------------------------|
A----------------------------------------------------|
F----------------------------------------------------|
C---4--4-4--4--4-4--4--4-4--4-4-4-4--2---2-2-2-2-2-2-|
G---4--4-4--4--4-4--4--4-4--4-4-4-4--2---2-2-2-2-2-2-|
C---4--4-4--4--4-4--4--4-4--4-4-4-4--2---2-2-2-2-2-2-|


[Intro/Riff 1] (Guitar 2)

D----------------------------------------|
A----------------------------------------|
F----------------------------------------|
C---7~----5~----4~---2~----2/////14------|
G----------------------------------------|
C----------------------------------------|

D------------------------------------------------------------------------------------------------|
A------------------------------------------------------------------------------------------------|
F-----------------------------------------------------------11------11--------11--------11h12~---|
C---14~-14h16p14~-14h16p14~-14h16p14~14h16h17~-------12~-12---12~-12--12~-12---12~-12------------|
G------------------------------------------------------------------------------------------------|
C------------------------------------------------------------------------------------------------|

D-------------------------------------------------|
A-------------------------------------------------|
F--------11-------11------11--------11h12~--------|
C-11~-11---11~-11---11~-11---11~-11-----------9~--|
G-------------------------------------------------|
C-------------------------------------------------|

D------------------------------------------------------------------------------------------|
A-----------------------------------------------7-------7-------7--------7h8~--------------|
F--////9--9~-9h11p9~--9h11p9~--9h11h12-----7~-7---7~--7---7~--7---7~--7--------------------|
C------------------------------------------------------------------------------------------|
G------------------------------------------------------------------------------------------|
C------------------------------------------------------------------------------------------|


D------------------------------------------------|
A-------7-------7-------7-------7h8~-------------|
F--6~-6---6~--6---6~--6---6~--6-------4~---------|
C------------------------------------------------|
G------------------------------------------------|
C------------------------------------------------|

[ Verse ]

D---------------------------------------|
A---------------------------------------|
F---------------------------------------|
C---7--x---------------5--x-------------|
G---7--x---------------5--x-------------|
C---7--x--(mute x16)---5--x--(mute x 16-|

D---------------------------------------|
A---------------------------------------|
F---------------------------------------|
C---4--x---------------2--x-------------|
G---4--x---------------2--x-------------|
C---4--x--(mute x16)---2--x--(mute x 16-|

[ Chorus ]

D------------------------------------------|
A------------------------------------------|
F------------------------------------------|
C----7---7---7---7-7-7---5---5---5---5-5-5-|
G----7---7---7---7-7-7---5---5---5---5-5-5-|
C----7---7---7---7-7-7---5---5---5---5-5-5-|

D-------------------------------------------|
A-------------------------------------------|
F-------------------------------------------|
C----4---4---4---4-4-4---2----2-2-2-2-2-2---|
G----4---4---4---4-4-4---2----2-2-2-2-2-2---|
C----4---4---4---4-4-4---2----2-2-2-2-2-2---| (repeat 2x)

D------------------------------------------|
A------------------------------------------|
F------------------------------------------|
C----0----5----0---4--2---0---5------------|
G----0----5----0---4--2---0---5------------|
C----0----5----0---4--2---0---5------------|

D---------------------------------------------|
A---------------------------------------------|
F---------------------------------------------|
C----5/7-7-7-7-7-7-7-7-7-7-7-7-7-7-7-7-7--5/7-|
G----5/7-7-7-7-7-7-7-7-7-7-7-7-7-7-7-7-7--5/7-|
C----5/7-7-7-7-7-7-7-7-7-7-7-7-7-7-7-7-7--5/7-|

[ Verse ]

D---------------------------------------|
A---------------------------------------|
F---------------------------------------|
C------x---------------5--x-------------|
G------x---------------5--x-------------|
C------x--(mute x16)---5--x--(mute x 16-|

D---------------------------------------|
A---------------------------------------|
F---------------------------------------|
C---4--x---------------2--x-------------|
G---4--x---------------2--x-------------|
C---4--x--(mute x16)---2--x--(mute x 16-|

D---------------------------------------|
A---------------------------------------|
F---------------------------------------|
C---7--x---------------5--x-------------|
G---7--x---------------5--x-------------|
C---7--x--(mute x16)---5--x--(mute x 16-|

D---------------------------------------|
A---------------------------------------|
F---------------------------------------|
C---4--x---------------2--x-------------|
G---4--x---------------2--x-------------|
C---4--x--(mute x16)---2--x--(mute x 16-|

[Chorus]

[Bridge]

D|----------------------------------------------------------------------------------------|
A|--10---12---14---15---17---15---14---12---15---14---12---10---12---14---15---17------22-|
F|--12b--14b--16b--17b--19b--17b--16b--14b--17b--16b--14b--12b--14b--16b--17b--19b--------|
C|----------------------------------------------------------------------------------------|
G|----------------------------------------------------------------------------------------|
C|----------------------------------------------------------------------------------------|

[ Riff2 - Under Bridge]

D-----------------------------------|
A-----------------------------------|
F-----------------------------------|
C---7--7-7--7--7-7--7--7-7--7-7-7-7-|
G---7--7-7--7--7-7--7--7-7--7-7-7-7-|
C---7--7-7--7--7-7--7--7-7--7-7-7-7-|

D-----------------------------------|
A-----------------------------------|
F-----------------------------------|
C---5--5-5--5--5-5--5--5-5--5-5-5-5-|
G---5--5-5--5--5-5--5--5-5--5-5-5-5-|
C---5--5-5--5--5-5--5--5-5--5-5-5-5-|

D-----------------------------------|
A-----------------------------------|
F-----------------------------------|
C---4--4-4--4--4-4--4--4-4--4-4-4-4-|
G---4--4-4--4--4-4--4--4-4--4-4-4-4-|
C---4--4-4--4--4-4--4--4-4--4-4-4-4-|

D--------------------------------------|
A--------------------------------------|
F--------------------------------------|
C---2--2-2--2--2-2--2--2-2--2-2-2-2--7-|
G---2--2-2--2--2-2--2--2-2--2-2-2-2--7-|
C---2--2-2--2--2-2--2--2-2--2-2-2-2--7-|

D-----------------------|
A-----------------------|
F-----------------------|
C---5-----4----2--------|
G---5-----4----2--------|
C---5-----4----2-(x16)--|

[Chorus]

[ Outro - 3:08 ]

D-----------------------------------------|
A-----------------------------------------|
F-----------------------------------------|
C----0----5----0---4--2----------------0--|
G----0----5----0---4--2----------------0--|
C----0----5----0---4--2---(repeat 4x)--0--|


7. Silver Bullets


Tuning: DADGBE

Intro:
E|---------------------|
B|---------------------|
G|-5555-5555-5555-5555-|
D|-5555-5555-5555-5555-|  x4
A|-3333-3333-3333-3333-|
D|---------------------|

Then...
E|---------------------|
B|---------------------|
G|-5555-9999-2222------|  
D|-5555-7777-2222-5555-|
A|-3333-7777-0000-5555-|
D|----------------5555-|

E|---------------------|
B|---------------------|
G|-5555------2222------|  
D|-5555-2222-2222-5555-|
A|-3333-2222-0000-5555-|
D|------2222------5555-|

Solo:
E|----8----8-13-12-10-12-10~-8-13-12-10-8-|
B|-8~---8~--------------------------------|
G|----------------------------------------|
D|----------------------------------------|
A|----------------------------------------|
D|----------------------------------------|

E|----7/8----8-13-12-10-12-10~-|
B|-8~-----8~-------------------|
G|-----------------------------|
D|-----------------------------|
A|-----------------------------|
D|-----------------------------|


Verse:
E|-------------------------------------|
B|-------------------------------------|
G|-5-5x5x5x----------2-2x2x2x----------|  x2
D|-5-5x5x5x-2-2x2x2x-2-2x2x2x-5-5x5x5x-|
A|-3-3x3x3x-2-2x2x2x-0-0x0x0x-5-5x5x5x-|
D|----------2-2x2x2x----------5-5x5x5x-|


Pre-Chorus:
E|--------------------|
B|--------------------|
G|--------------------|
D|-3333-7777-5x5x5x5x-| x4
A|-3333-7777-5x5x5x5x-|
D|-3333-7777-5x5x5x5x-|

Solo:
E|-3~-5~-8~-|
B|----5x----|
G|----5~----|
D|----------|  x3
A|----------|
D|----------|

E|-3~-----------|
B|--------------|
G|----2~-0---0~-|
D|---------2-0~-|
A|--------------|
D|--------------|


Chorus:
E|---------------------|
B|---------------------|
G|-5555------2222------|  x2
D|-5555-2222-2222-5555-|
A|-3333-2222-0000-5555-|
D|------2222------5555-|

Solo - optional:
(Play quietly)
E|---------------------|
B|-8~---8~---10~--8~---|
G|---------------------|
D|---------------------|
A|---------------------|
D|---------------------|


Post-Chorus:
E|---------------------|
B|---------------------|
G|-5555------2222------|  x2
D|-5555-2222-2222-5555-|
A|-3333-2222-0000-5555-|
D|------2222------5555-|

Solo:
E|----8----8-13-12-10-12-10~-8-13-12-10-8-|
B|-8~---8~--------------------------------|
G|----------------------------------------|
D|----------------------------------------|
A|----------------------------------------|
D|----------------------------------------|

E|----7/8----8-13-12-10-12-10~-|
B|-8~-----8~-------------------|
G|-----------------------------|
D|-----------------------------|
A|-----------------------------|
D|-----------------------------|


Verse 2:
E|-------------------------------------|
B|-------------------------------------|
G|-5-5x5x5x----------2-2x2x2x----------|  x2
D|-5-5x5x5x-2-2x2x2x-2-2x2x2x-5-5x5x5x-|
A|-3-3x3x3x-2-2x2x2x-0-0x0x0x-5-5x5x5x-|
D|----------2-2x2x2x----------5-5x5x5x-|


Pre-Chorus:
E|--------------------|
B|--------------------|
G|--------------------|
D|-3333-7777-5x5x5x5x-| x4
A|-3333-7777-5x5x5x5x-|
D|-3333-7777-5x5x5x5x-|

Solo:
E|-3~-5~-8~-|
B|----5x----|
G|----5~----|
D|----------|  x3
A|----------|
D|----------|

E|-3~-----------|
B|--------------|
G|----2~-0---0~-|
D|---------2-0~-|
A|--------------|
D|--------------|


Chorus 2:
E|---------------------|
B|---------------------|
G|-5555------2222------|  x2
D|-5555-2222-2222-5555-|
A|-3333-2222-0000-5555-|
D|------2222------5555-|

Solo - optional:
(Play quietly)
E|---------------------|
B|-8~---8~---10~--8~---|
G|---------------------|
D|---------------------|
A|---------------------|
D|---------------------|


Bridge:
E|---------------------|
B|---------------------|
G|-5555------2222------|  x2
D|-5555-2222-2222-5555-|
A|-3333-2222-0000-5555-|
D|------2222------5555-|

Solo - Guitar 1:
E|-----------------------------------------------|
B|-0h1-0h1-0h1-0h1-0h1-3~-7h8-7h8-7h8-7h8-7h8-3~-|
G|-----------------------------------------------|
D|-----------------------------------------------|
A|-----------------------------------------------|
D|-----------------------------------------------|

E|---------------------------------------|
B|-0h1-0h1-0h1-0h1-0h1-3~-6-5-3-1-0---1~-|
G|----------------------------------0----|
D|---------------------------------------|
A|---------------------------------------|
D|---------------------------------------|

Solo - Guitar 2:
E|-----------------------------------------------|
B|-----------------------------------------------|
G|-----------------------------------------------|
D|------------------------4h5-4h5-4h5-4h5-4h5-5~-|
A|-2h3-2h3-2h3-2h3-2h3-5~------------------------|
D|-----------------------------------------------|

E|---------------------------------------|
B|---------------------------------------|
G|---------------------------------------|
D|------------------------3-2-0----------|
A|-2h3-2h3-2h3-2h3-2h3-5~-------3-2---3~-|
D|----------------------------------5----|


Pre-Chorus:
E|--------------------|
B|--------------------|
G|--------------------|
D|-3333-7777-5x5x5x5x-| x4
A|-3333-7777-5x5x5x5x-|
D|-3333-7777-5x5x5x5x-|

Solo:
E|-3~-5~-8~-|
B|----5x----|
G|----5~----|
D|----------|  x3
A|----------|
D|----------|

E|-3~-----------|
B|--------------|
G|----2~-0---0~-|
D|---------2-0~-|
A|--------------|
D|--------------|


Final Chorus:
E|---------------------|
B|---------------------|
G|-5555------2222------|  x2
D|-5555-2222-2222-5555-|
A|-3333-2222-0000-5555-|
D|------2222------5555-|

Solo - optional:
(Play quietly)
E|---------------------|
B|-8~---8~---10~--8~---|
G|---------------------|
D|---------------------|
A|---------------------|
D|---------------------|


Post-Chorus:
E|---------------------|
B|---------------------|
G|-5555------2222------|  x2
D|-5555-2222-2222-5555-|
A|-3333-2222-0000-5555-|
D|------2222------5555-|

Solo:
E|----8----8-13-12-10-12-10~-8-13-12-10-8-|
B|-8~---8~--------------------------------|
G|----------------------------------------|
D|----------------------------------------|
A|----------------------------------------|
D|----------------------------------------|

E|----7/8----8-13-12-10-12-10~-|
B|-8~-----8~-------------------|
G|-----------------------------|
D|-----------------------------|
A|-----------------------------|
D|-----------------------------|


End on:
E|---|
B|---|
G|-5-|
D|-5-|
A|-3-|
D|---|


8. Bad at Being Human



Intro/Main riff
[ 0:07 ]

D|-------------------------------------------|
A|-------------------------------------------|
F|-------------------------------------------|
C|--4-4-4--x--7-7-7-9-7-9-7-9-7---12-12-12-11|
G|--4-4-4--x--7-7-7-9-7-9-7-9-7---12-12-12-11|
C|--4-4-4--x--7-7-7-9-7-9-7-9-7---12-12-12-11|

D|------------------------------------------------------------|
A|------------------------------------------------------------|
F|------------------------------------------------------------|
C|--4-4-4--x--7-7-7-9-7-9-7-9-7----4-4-4--x--7-7-7-9-7-9-7-9-7|
G|--4-4-4--x--7-7-7-9-7-9-7-9-7----4-4-4--x--7-7-7-9-7-9-7-9-7|
C|--4-4-4--x--7-7-7-9-7-9-7-9-7----4-4-4--x--7-7-7-9-7-9-7-9-7|

D|-------------------------------------------|
A|-------------------------------------------|
F|-------------------------------------------|
C|--4-4-4--x--7-7-7-9-7-9-7-9-7---12-12-12-11|
G|--4-4-4--x--7-7-7-9-7-9-7-9-7---12-12-12-11|
C|--4-4-4--x--7-7-7-9-7-9-7-9-7---12-12-12-11|

[Guitar 2]

D|------------------------------999-8-|
A|-7-7-10-10-12-10-12-10-12-10~-------|
F|------------------------------------|
C|------------------------------------|
G|------------------------------------|
C|------------------------------------|

[Main riff]
[0:25]  I'm Bad... Oh baby I'm bad...

D|-------------------------------------------|
A|-------------------------------------------|
F|-------------------------------------------|
C|--4-4-7-7--4-4-7-7--4-4-7-7--2-2-2---------|
G|--4-4-7-7--4-4-7-7--4-4-7-7--2-2-2---------|
C|--4-4-7-7--4-4-7-7--4-4-7-7--2-2-2---------|  [Repeat x8]

I'm bad in the morning, bad at life....

D|----------------------------------------------------------------------|
A|----------------------------------------------------------------------|
F|----------------------------------------------------------------------|
C|--7-7-7-7-7-7-7-7--4-4-7-7--4-4-7-7--4-4-7-7--4-4-7-7--7-7-7-7-7-7-7-7|
G|--5-5-5-5-5-5-5-5--4-4-7-7--4-4-7-7--4-4-7-7--4-4-7-7--5-5-5-5-5-5-5-5|
C|-------------------4-4-7-7--4-4-7-7--4-4-7-7--4-4-7-7-----------------|

D|-------------------------------------------|
A|-------------------------------------------|
F|-------------------------------------------|
C|-----7--7--7--7--9-7-9-7-9-7---------------|
G|-----7--7--7--7--9-7-9-7-9-7---------------|

Chorus:

D|--------------------------------|
A|--------------------------------|
F|--------------------------------|
C|--4-4-4--x--7-7-7-9-7-9-7-9-7---|
G|--4-4-4--x--7-7-7-9-7-9-7-9-7---|
C|--4-4-4--x--7-7-7-9-7-9-7-9-7---| [Repeat x7]


D|-------------------------------------------|
A|-------------------------------------------|
F|-------------------------------------------|
C|--4-4-4--x--7-7-7-9-7-9-7-9-7---12-12-12-11|
G|--4-4-4--x--7-7-7-9-7-9-7-9-7---12-12-12-11|
C|--4-4-4--x--7-7-7-9-7-9-7-9-7---12-12-12-11|

(Guitar 2)

D|----------------------------------------------------999-8-|
A|-10-9-7-5-7-9-10-9-1010-99-77-99--10-9-7-5-7-9-10-9-------|
F|----------------------------------------------------------|
C|----------------------------------------------------------|
G|----------------------------------------------------------|
C|----------------------------------------------------------|

[Main riff]
[Chorus]

[Solo]

D|------------------7-7-7-7h5--------------|
A|-7b-7b-7-5-----7------------7h5-7-7------|
F|-----------6h4-6------------------6-6-6--|
C|-----------------------------------------|
G|-----------------------------------------|
C|-----------------------------------------|

D|-----------------------------------------------|
A|-----------------------9h10-9h7----------------|
F|-5/6-6-4------------6-----------9-7-6---6b-----|
C|---------7-6-4-6--4-7-----------------9--------|
G|-------------------------------------------8b~-|

Under the solo part:

D|-------------------------------------|
A|-------------------------------------|
F|-------------------------------------|
C|--4-4-7-7--4-4-7-7--4-4-7-7--2-2-2---|
G|--4-4-7-7--4-4-7-7--4-4-7-7--2-2-2---|
C|--4-4-7-7--4-4-7-7--4-4-7-7--2-2-2---| [Repeat x8]

D|----------------------------------------------------------------------|
A|----------------------------------------------------------------------|
F|----------------------------------------------------------------------|
C|--7-7-7-7-7-7-7-7--4-4-7-7--4-4-7-7--4-4-7-7--4-4-7-7--7-7-7-7-7-7-7-7|
G|--5-5-5-5-5-5-5-5--4-4-7-7--4-4-7-7--4-4-7-7--4-4-7-7--5-5-5-5-5-5-5-5|
C|-------------------4-4-7-7--4-4-7-7--4-4-7-7--4-4-7-7-----------------|

D|-------------------------------------------|
A|-------------------------------------------|
F|-------------------------------------------|
C|-----7--7--7--7--9-7-9-7-9-7---------------|
G|-----7--7--7--7--9-7-9-7-9-7---------------|

[Chorus]
(Guitar 2)

D|---------------------------------------------------------99-1414~-|
A|-10-9-7-5-7-9-10-9-1010-99-77-99--10-9-7-5-7-9-10-9-1010----------|
F|------------------------------------------------------------------|
C|------------------------------------------------------------------|
G|------------------------------------------------------------------|
C|------------------------------------------------------------------|

D|----------------------------------------------------999-8-|
A|-10-9-7-5-7-9-10-9-1010-99-77-99--10-9-7-5-7-9-10-9-------|
F|----------------------------------------------------------|
C|----------------------------------------------------------|
G|----------------------------------------------------------|
C|----------------------------------------------------------|

Outro:

D|-------------------------------------|
A|-------------------------------------|
F|-------------------------------------|
C|--4-4-7-7--4-4-7-7--4-4-7-7--2-2-2---|
G|--4-4-7-7--4-4-7-7--4-4-7-7--2-2-2---|
C|--4-4-7-7--4-4-7-7--4-4-7-7--2-2-2---| [Repeat x8]


9. London After Midnight



Tuning: CGCFAD

Intro:
D|--------------------------------|
A|--------------------------------|
F|--------------------------9~-7~-|
C|-----------------------5~-9~-7~-|
G|-----------------------5~-7~-5~-|
C|-12x12x12x12x-4x4x4x4x-5~-------|


Verse:
(Second time: don't mute last chords)
D|------------------------------------------|
A|------------------------------------------|
F|-7-7x7x7x-----------------9-9x9x-7-7x7x7x-|
C|-7-7x7x7x-4-4x4x4x-5-5x5x-9-9x9x-7-7x7x7x-|  x2
G|-5-5x5x5x-4-4x4x4x-5-5x5x-7-7x7x-5-5x5x5x-|
C|----------4-4x4x4x-5-5x5x-----------------|


Pre-Chorus:
D|----------------------|
A|----------------------|
F|-5555------7777-6/777-|
C|-5555-5555-7777-6/777-|  
G|-3333-5555-5555-4/555-|
C|------5555------------|

D|-----------------------|
A|-----------------------|
F|-5555------------------|
C|-5555-5555-77-55-444-5-|
G|-3333-5555-77-55-444-5-|
C|------5555-77-55-444-5-|

Solo Part:
D|-3~----5~-5-3-2-3~---------------|
A|----3~-------------3~-5~-3~-2~-3-|
F|---------------------------------|
C|---------------------------------|
G|---------------------------------|
C|---------------------------------|


Chorus:
D|----------------------|
A|----------------------|
F|-7777---------99-7777-|
C|-7777-4444-55-99-7777-|  x2
G|-5555-4444-55-77-5555-|
C|------4444-55---------|

Solo Part:
D|----2~-5~-------|
A|-3~-------5~-3~-|
F|----------------|
C|----------------|  x2
G|----------------|
C|----------------|


Pre-Verse:
D|----------------------|
A|----------------------|
F|-7777---------99-7777-|
C|-7777-4444-55-99-7777-|
G|-5555-4444-55-77-5555-|
C|------4444-55---------|

Solo Part:
D|---0-2-0-2-3-2-0-2~-5-3-2-0-2-0----|
A|-3------------------------------3~-|
F|-----------------------------------|
C|-----------------------------------|
G|-----------------------------------|
C|-----------------------------------|


Verse 2:
(Second time: don't mute last chords)
D|------------------------------------------|
A|------------------------------------------|
F|-7-7x7x7x-----------------9-9x9x-7-7x7x7x-|
C|-7-7x7x7x-4-4x4x4x-5-5x5x-9-9x9x-7-7x7x7x-|  x2
G|-5-5x5x5x-4-4x4x4x-5-5x5x-7-7x7x-5-5x5x5x-|
C|----------4-4x4x4x-5-5x5x-----------------|


Pre-Chorus:
D|----------------------|
A|----------------------|
F|-5555------7777-6/777-|
C|-5555-5555-7777-6/777-|  
G|-3333-5555-5555-4/555-|
C|------5555------------|

D|-----------------------|
A|-----------------------|
F|-5555------------------|
C|-5555-5555-77-55-444-5-|
G|-3333-5555-77-55-444-5-|
C|------5555-77-55-444-5-|

Solo Part:
D|-3~----5~-5-3-2-3~---------------|
A|----3~-------------3~-5~-3~-2~-3-|
F|---------------------------------|
C|---------------------------------|
G|---------------------------------|
C|---------------------------------|


Chorus 2:
D|----------------------|
A|----------------------|
F|-7777---------99-7777-|
C|-7777-4444-55-99-7777-|  x2
G|-5555-4444-55-77-5555-|
C|------4444-55---------|

Solo Part:
D|----2~-5~-------|
A|-3~-------5~-3~-|
F|----------------|
C|----------------|  x2
G|----------------|
C|----------------|


Bridge:
D|----------------------|
A|----------------------|
F|-7777---------99-7777-|
C|-7777-4444-55-99-7777-|  
G|-5555-4444-55-77-5555-|
C|------4444-55---------|

Solo Part:
(I am not sure about the harmonies)
D|------------------------------------|
A|-------8h6--------------------------|
F|-7b-7b-----7h5-7--------------------|
C|-7b-7b-----------7-10-5-3-5-3-3h5-0-|
G|------------------------------------|
C|------------------------------------|

(Some of these notes may be wrong)
D|-----------------------10----15-13-10----10~-|
A|------------10-8-6---6----10----------13-----|
F|-------5-7~--------7-------------------------|
C|-0-3-5---------------------------------------|
G|---------------------------------------------|
C|---------------------------------------------|


Pre-Chorus:
D|----------------------|
A|----------------------|
F|-5555------7777-6/777-|
C|-5555-5555-7777-6/777-|  
G|-3333-5555-5555-4/555-|
C|------5555------------|

D|-----------------------|
A|-----------------------|
F|-5555------------------|
C|-5555-5555-77-55-444-5-|
G|-3333-5555-77-55-444-5-|
C|------5555-77-55-444-5-|

Solo Part:
D|-3~----5~-5-3-2-3~---------------|
A|----3~-------------3~-5~-3~-2~-3-|
F|---------------------------------|
C|---------------------------------|
G|---------------------------------|
C|---------------------------------|


Final Chorus:
D|----------------------|
A|----------------------|
F|-7777---------99-7777-|
C|-7777-4444-55-99-7777-|  x2
G|-5555-4444-55-77-5555-|
C|------4444-55---------|

D|--------------------|
A|--------------------|
F|-7777---------9~-7~-|
C|-7777-4444-5~-9~-7~-|
G|-5555-4444-5~-7~-5~-|
C|------4444-5~-------|

Solo Part:
D|----2~-5~-----------2~-5~-----------2~----5~----|
A|-3~-------5~-3~--3~-------5~-3~--3~----3~----3~-|
F|------------------------------------------------|
C|------------------------------------------------|
G|------------------------------------------------|
C|------------------------------------------------|


10. Candle for the Devil



Intro:
E|-----------------------------------------------------|
B|-----------------------------------------------------|
G|-----------------------------------------------------|
D|-9x-9-7-12~-9x-9-7-9~-9x-9-7-12~-9x-9-7-9~-7-9-4-2-4-|
A|-9x-9-7-12~-9x-9-7-9~-9x-9-7-12~-9x-9-7-9~-7-9-4-2-4-|
D|-9x-9-7-12~-9x-9-7-9~-9x-9-7-12~-9x-9-7-9~-7-9-4-2-4-|

E|-------------------------------------------------------|
B|-------------------------------------------------------|
G|-------------------------------------------------------|
D|-9x-9-7-12~-12-12--9x-9-7-9~-9-9--9x-9-7-12~-9x-9-7-9~-|
A|-9x-9-7-12~-12-12--9x-9-7-9~-9-9--9x-9-7-12~-9x-9-7-9~-|
D|-9x-9-7-12~-12-12--9x-9-7-9~-9-9--9x-9-7-12~-9x-9-7-9~-|

Solo Part:
(Play after the first half of the riff)
E|-------------------|
B|-----------12~-12\-|
G|-11-11-11----------|
D|-9--7--12~---------|
A|-------------------|
D|-------------------|


Verse:
E|-------------------------------------------|
B|-------------------------------------------|
G|-------------------------------------------|
D|-9x-9-7-12~-9x-9-7-9~-9x-9-7-12~-9x-9-7-9~-|
A|-9x-9-7-12~-9x-9-7-9~-9x-9-7-12~-9x-9-7-9~-|
D|-9x-9-7-12~-9x-9-7-9~-9x-9-7-12~-9x-9-7-9~-|

E|-----------------------------------------------------|
B|-----------------------------------------------------|
G|-----------------------------------------------------|
D|-9x-9-7-12~-9x-9-7-9~-9x-9-7-12~-9x-9-7-9~-9-9-9-7-9-|
A|-9x-9-7-12~-9x-9-7-9~-9x-9-7-12~-9x-9-7-9~-9-9-9-7-9-|
D|-9x-9-7-12~-9x-9-7-9~-9x-9-7-12~-9x-9-7-9~-9-9-9-7-9-|

Solo Part:
(Play first time)
E|------14+~-|
B|-12+~------|
G|-----------|
D|-----------|
A|-----------|
D|-----------|

E|---------------------------|
B|---------------------------|
G|-11-11-11------------------|
D|-9--7--12~----9-12-9----9~-|
A|-----------12--------12----|
D|---------------------------|

E|--------------------------|
B|-----------12~------------|
G|-11-11-11------4-4-4-2-4\-|
D|-9--7--12~----------------|
A|--------------------------|
D|--------------------------|


Chorus:
E|-------------------------------------------|
B|-------------------------------------------|
G|-------------------------------------------|
D|-9x-9-7-12~-9x-9-7-9~-9x-9-7-12~-9x-9-7-9~-|  x2
A|-9x-9-7-12~-9x-9-7-9~-9x-9-7-12~-9x-9-7-9~-|
D|-9x-9-7-12~-9x-9-7-9~-9x-9-7-12~-9x-9-7-9~-|


Post-Chorus:
E|-------------------------------------------|
B|-------------------------------------------|
G|-------------------------------------------|
D|-9x-9-7-12~-9x-9-7-9~-9x-9-7-12~-9x-9-7-9~-|
A|-9x-9-7-12~-9x-9-7-9~-9x-9-7-12~-9x-9-7-9~-|
D|-9x-9-7-12~-9x-9-7-9~-9x-9-7-12~-9x-9-7-9~-|

Solo Part:
(I don't know what is being played here, but I think it's like this)
E|--------------------------7-----------12-10-9-7---7b-|
B|-7h10-7h10-7h10-7h10-7h10-7-10-7-5-3~-----------7----|
G|-----------------------------------------------------|
D|-----------------------------------------------------|
A|-----------------------------------------------------|
D|-----------------------------------------------------|

(I have no idea about the solo part here)
|-----------------------------------|
|-----------4h3h0-4h3h0-5h3h0-0~-4/-|
|-------2b--------------------------|
|-0-4h5-----------------------------|
|-----------------------------------|
|-----------------------------------|


Verse 2:
E|-------------------------------------------|
B|-------------------------------------------|
G|-------------------------------------------|
D|-9x-9-7-12~-9x-9-7-9~-9x-9-7-12~-9x-9-7-9~-|
A|-9x-9-7-12~-9x-9-7-9~-9x-9-7-12~-9x-9-7-9~-|
D|-9x-9-7-12~-9x-9-7-9~-9x-9-7-12~-9x-9-7-9~-|

E|-----------------------------------------------------|
B|-----------------------------------------------------|
G|-----------------------------------------------------|
D|-9x-9-7-12~-9x-9-7-9~-9x-9-7-12~-9x-9-7-9~-9-9-9-7-9-|
A|-9x-9-7-12~-9x-9-7-9~-9x-9-7-12~-9x-9-7-9~-9-9-9-7-9-|
D|-9x-9-7-12~-9x-9-7-9~-9x-9-7-12~-9x-9-7-9~-9-9-9-7-9-|

Solo Part:
(Play first time)
E|------14+~-----------|
B|-12+~-------12+~-7+~-|
G|---------------------|
D|---------------------|
A|---------------------|
D|---------------------|

E|---------------------------|
B|---------------------------|
G|-11-11-11------------------|
D|-9--7--12~----9-12-9----9~-|
A|-----------12--------12----|
D|---------------------------|

E|--------------------------|
B|-----------12~------------|
G|-11-11-11------4-4-4-2-4\-|
D|-9--7--12~----------------|
A|--------------------------|
D|--------------------------|

Chorus 2:
E|-------------------------------------------|
B|-------------------------------------------|
G|-------------------------------------------|
D|-9x-9-7-12~-9x-9-7-9~-9x-9-7-12~-9x-9-7-9~-|  x2
A|-9x-9-7-12~-9x-9-7-9~-9x-9-7-12~-9x-9-7-9~-|
D|-9x-9-7-12~-9x-9-7-9~-9x-9-7-12~-9x-9-7-9~-|


Bridge:
E|-------------------------------------------|
B|-------------------------------------------|
G|-------------------------------------------|
D|-9x-9-7-12~-9x-9-7-9~-9x-9-7-12~-9x-9-7-9~-|
A|-9x-9-7-12~-9x-9-7-9~-9x-9-7-12~-9x-9-7-9~-|
D|-9x-9-7-12~-9x-9-7-9~-9x-9-7-12~-9x-9-7-9~-|

Solo Part:
E|-7~-5b~-7~---------------------------------------------------------------|
B|-----------7-5---5-7-7-5-3-0-------------5h3h0-5h3h0-5h3h0-7h5h0-12~\10~-|
G|---------------7----------------1~-2~-4~---------------------------------|
D|-----------------------------4~------------------------------------------|
A|-------------------------------------------------------------------------|
D|-------------------------------------------------------------------------|

Then...
E|-----------------------------------------------------|
B|-----------------------------------------------------|
G|-----------------------------------------------------|
D|-9x-9-7-12~-9x-9-7-9~-9x-9-7-12~-9x-9-7-9~-7-9-4-2-4-|
A|-9x-9-7-12~-9x-9-7-9~-9x-9-7-12~-9x-9-7-9~-7-9-4-2-4-|
D|-9x-9-7-12~-9x-9-7-9~-9x-9-7-12~-9x-9-7-9~-7-9-4-2-4-|

Final Chorus:
E|-------------------------------------------|
B|-------------------------------------------|
G|-------------------------------------------|
D|-9x-9-7-12~-9x-9-7-9~-9x-9-7-12~-9x-9-7-9~-|  x2
A|-9x-9-7-12~-9x-9-7-9~-9x-9-7-12~-9x-9-7-9~-|
D|-9x-9-7-12~-9x-9-7-9~-9x-9-7-12~-9x-9-7-9~-|

Post-Chorus:
(Play the riff and fade out)
E|-------------------------------------------|
B|-------------------------------------------|
G|-------------------------------------------|
D|-9x-9-7-12~-9x-9-7-9~-9x-9-7-12~-9x-9-7-9~-|
A|-9x-9-7-12~-9x-9-7-9~-9x-9-7-12~-9x-9-7-9~-|
D|-9x-9-7-12~-9x-9-7-9~-9x-9-7-12~-9x-9-7-9~-|

Solo Part:
(I don't know what is being played here, but I think it's like this)
E|--------------------------7-----------12-10-9-7---7b-|
B|-7h10-7h10-7h10-7h10-7h10-7-10-7-5-3~-----------7----|
G|-----------------------------------------------------|
D|-----------------------------------------------------|
A|-----------------------------------------------------|
D|-----------------------------------------------------|

(I have no idea about the solo part here)
|-----------------------------------|
|-----------4h3h0-4h3h0-5h3h0-0~-4/-|
|-------2b--------------------------|
|-0-4h5-----------------------------|
|-----------------------------------|
|-----------------------------------|

E|------14+~------14+~-----|
B|-12+~-------7+~------7+~-|
G|-------------------------|
D|-------------------------|
A|-------------------------|
D|-------------------------|


11. We All Die



Intro:
D|-----------------------------|
A|-----------------------------|
F|-----------------------------|
C|-----------------------------| x4
G|--------7--------------------|
C|-101010---777-10-333-2-555-7-|

Solo Part:
(Play after the riff is played three times)
D|---------------------------------|
A|-10b-10b-10b-8~-5-6-5-3-6-5-3-1~-|
F|---------------------------------|
C|---------------------------------|
G|---------------------------------|
C|---------------------------------|


Verse:
D|---------------------------------------------|
A|---------------------------------------------|
F|---------------------------------------------|
C|---------------------------------------------| x2
G|-----------7x--------------------------------|
C|-10x10x10x----7x7x7x-10x-3x3x3x-2x-5x5x5x-7x-|

D|------------------------------|
A|------------------------------|
F|------------------------------|
C|-101010-14-777-10-333-2-555-7-| 
G|-101010-14-777-10-333-2-555-7-|
C|-101010-14-777-10-333-2-555-7-|

D|-----------------------------|
A|-----------------------------|
F|-----------------------------|
C|-101010-14-777-10-333-2-5555-| 
G|-101010-14-777-10-333-2-5555-|
C|-101010-14-777-10-333-2-5555-|


Pre-Chorus:
|-----------|
|-----------|
|-----------|
|-3333-5575-| x3
|-3333-5575-|
|-3333-5575-|

D|---------------------|
A|---------------------|
F|---------------------|
C|-3333-3333-5555-7799-|
G|-3333-3333-5555-7799-|
C|-3333-3333-5555-7799-|

Solo Part:
D|-----------------------------------------------------|
A|-------------------------------3~-33-------0~-1-3-1~-|
F|-5~-55-4~-44-5~-55-4~-44-5~-55-4~-44-5~-55-0~--------|
C|-----------------------------------------------------|
G|-----------------------------------------------------|
C|-----------------------------------------------------|


Chorus:
D|------------------------------|
A|------------------------------|
F|------------------------------|
C|-101010-14-777-10-333-2-555-7-|  x4
G|-101010-14-777-10-333-2-555-7-|
C|-101010-14-777-10-333-2-555-7-|

Solo Part:
D|-------------|
A|-------------|
F|-10-9-7-5-5~-|
C|-------------|  x3
G|-------------|
C|-------------|

Post-Chorus:
D|------------------------------|
A|------------------------------|
F|------------------------------|
C|-101010-14-777-10-333-2-555-7-|  x2
G|-101010-14-777-10-333-2-555-7-|
C|-101010-14-777-10-333-2-555-7-|


Solo Part:
(Play after the riff is played once)
D|---------------------------------|
A|-10b-10b-10b-8~-5-6-5-3-6-5-3-1~-|
F|---------------------------------|
C|---------------------------------|
G|---------------------------------|
C|---------------------------------|


Verse 2:
D|---------------------------------------------|
A|---------------------------------------------|
F|---------------------------------------------|
C|---------------------------------------------| x2
G|-----------7x--------------------------------|
C|-10x10x10x----7x7x7x-10x-3x3x3x-2x-5x5x5x-7x-|

D|------------------------------|
A|------------------------------|
F|------------------------------|
C|-101010-14-777-10-333-2-555-7-| 
G|-101010-14-777-10-333-2-555-7-|
C|-101010-14-777-10-333-2-555-7-|

D|-----------------------------|
A|-----------------------------|
F|-----------------------------|
C|-101010-14-777-10-333-2-5555-| 
G|-101010-14-777-10-333-2-5555-|
C|-101010-14-777-10-333-2-5555-|


Pre-Chorus:
|-----------|
|-----------|
|-----------|
|-3333-5575-| x3
|-3333-5575-|
|-3333-5575-|

D|---------------------|
A|---------------------|
F|---------------------|
C|-3333-3333-5555-7799-|
G|-3333-3333-5555-7799-|
C|-3333-3333-5555-7799-|

Solo Part:
D|-----------------------------------------------------|
A|-------------------------------3~-33-------0~-1-3-1~-|
F|-5~-55-4~-44-5~-55-4~-44-5~-55-4~-44-5~-55-0~--------|
C|-----------------------------------------------------|
G|-----------------------------------------------------|
C|-----------------------------------------------------|


Chorus 2:
D|------------------------------|
A|------------------------------|
F|------------------------------|
C|-101010-14-777-10-333-2-555-7-|  x4
G|-101010-14-777-10-333-2-555-7-|
C|-101010-14-777-10-333-2-555-7-|

Solo Part:
D|-------------|
A|-------------|
F|-10-9-7-5-5~-|
C|-------------|  x3
G|-------------|
C|-------------|


Bridge:
D|------------------------------|
A|------------------------------|
F|------------------------------|
C|-101010-14-777-10-333-2-555-7-|  x4
G|-101010-14-777-10-333-2-555-7-|
C|-101010-14-777-10-333-2-555-7-|

Solo Part:
D|-33-3-3-33-3-3-3333-8h6-3-3~-----3-3-3-----0-0-3333-3b-3b-|
A|-11-1-1-11-1-1---------------4h5-1-1-1-4h5-1-1------------|
F|----------------------------------------------------------|
C|----------------------------------------------------------|
G|----------------------------------------------------------|
C|----------------------------------------------------------|

D|-13h12-10-12-10----------10h12-10-------------------------------|
A|----------------13-12-13----------13-12-13-12-13----------------|
F|-------------------------------------------------12-10-9-10-9-7-|
C|----------------------------------------------------------------|
G|----------------------------------------------------------------|
C|----------------------------------------------------------------|

D|--------------|
A|----8~-8~-10~-|
F|-5~-----------|
C|--------------|
G|--------------|
C|--------------|


Pre-Chorus:
|-----------|
|-----------|
|-----------|
|-3333-5575-| x3
|-3333-5575-|
|-3333-5575-|

D|---------------------|
A|---------------------|
F|---------------------|
C|-3333-3333-5555-7799-|
G|-3333-3333-5555-7799-|
C|-3333-3333-5555-7799-|

Solo Part:
D|-----------------------------------------------------|
A|-------------------------------3~-33-------0~-1-3-1~-|
F|-5~-55-4~-44-5~-55-4~-44-5~-55-4~-44-5~-55-0~--------|
C|-----------------------------------------------------|
G|-----------------------------------------------------|
C|-----------------------------------------------------|


Final Chorus:
D|------------------------------|
A|------------------------------|
F|------------------------------|
C|-101010-14-777-10-333-2-555-7-|  x4
G|-101010-14-777-10-333-2-555-7-|
C|-101010-14-777-10-333-2-555-7-|

Solo Part:
D|-------------|
A|-------------|
F|-10-9-7-5-5~-|
C|-------------|  x3
G|-------------|
C|-------------|

Outro:
D|-----------------------------|
A|-----------------------------|
F|-----------------------------|
C|-----------------------------| x4
G|--------7--------------------|
C|-101010---777-10-333-2-555-7-|

End on:
D|-----|
A|-----|
F|-----|
C|-10~-|
G|-10~-|
C|-10~-|


12. Something Wicked This Way Comes



INTRO

D-------------------------|
A-------------------------|
F-----66666666------------|
C-----66666666------------| 4x
G-----44444444------------|
C-------------------------|
PM------------------------|

Then...

D--------------------------|
A--------------------------|
F-----666666-66-66666------|
C-----666666-66-66666------| 
G-----444444-44-46666------|
C--------------------------|
PM---------|    |----------|

D---------------------------------------------------------|
A---------------------------------------------------------|
F---------------------------------------------------------|
C----666666-66-66666/888888-88-8888888/44444444-66--------| 
G----666666-66-66666/888888-88-8888888/44444444-66--------|
C----666666-66-66666/888888-88-8888888/44444444-66--------|
PM--------|    |----------|   |---------------|

INTRO II.
Rhythm Guitar

D----------------------------------|
A----------------------------------|
F-----666666-----------------------|
C-----666666--66666-88888-444-666--| 2x
G-----444444--66666-88888-444-666--|
C-------------66666-88888-444-666--|

Lead Guitar

D-----------------------------------------|
A-----------------------------------------|
F-----6-6-6-6-6-6-6-6--5-5-5-5-5-5-5-5-5--|
C------6-6-6-6-6-6-6-6--6-6-6-6-6-6-6-6---| 
G-----------------------------------------|
C-----------------------------------------|

D-----------------------------------------|
A-----------------------------------------|
F----3-3-3-3-3-3-3-3---6666666-8888888888-|
C-----4-4-4-4-4-4-4-4---------------------| 
G-----------------------------------------|
C-----------------------------------------|


Only one guitar!!
D-------------------------|
A-------------------------|
F-----66-x-6-x-66/777-----|
C-----66-x-6-x-66/777-----| 4x
G-----44-x-4-x-44/555-----|
C-------------------------|

Then second guitar 

D--------------------------------|
A--------------------------------|
F------------66-x-6-x-66/777-----|
C-131313\----66-x-6-x-66/777-----| 4x
G-131313\----44-x-4-x-44/555-----|
C-131313\------------------------|

VERSE I. 2X

D-----------------------------------------------|
A-----------------------------------------------|
F-----66-x-6-x-66/777---------------------------|
C-----66-x-6-x-66/777--66-x-6-x-66666-x-6-x-666-| 
G-----44-x-4-x-44/555--66-x-6-x-66666-x-6-x-666-|
C----------------------66-x-6-x-66666-x-6-x-666-|

D-------------------------------------------------------------|
A-------------------------------------------------------------|
F-------------------------------------------------------------|
C--88-x-8-x-8888-x-8-x-888-44-x-4-x-4444-66-x-6-x-6666--------| 
G--88-x-8-x-8888-x-8-x-888-44-x-4-x-4444-66-x-6-x-6666--------|
C--88-x-8-x-8888-x-8-x-888-44-x-4-x-4444-66-x-6-x-6666--------|

CHORUS
2x

Rhythm Guitar
D-----------------------------------------|
A-----------------------------------------|
F-----6666666-----------------------------|
C-----6666666-6666666-8888888-44444-66666-| 
G-----4444444-6666666-8888888-44444-66666-|
C-------------6666666-8888888-44444-66666-|

Lead Guitar

D------------------------------------------|
A------------------------------------------|
F--13131313-11111111-10101010--8888--66666-|
C---x-x-x-x--x-x-x-x--x-x-x-x--xxxx--xxxxx-| 
G--11111111--9-9-9-9--8-8-8-8--6666--44444-|
C------------------------------------------|

D-----------------------------------------------------------|
A-----------------------------------------------------------|
F-101010--666-101010-1111--666-1111--131313-1111-1010-8888--|
C--x-x-x--xxx--x-x-x--x-x--xxx--x-x--x-x-x---x-x-x-x--xxxx--| 
G--8-8-8--444--8-8-8--9-9--444--9-9--111111--9-9-8-8--6666--|
C-----------------------------------------------------------|

After second time.
Both Guitars

D------|
A------|
F--6---|
C--6---|
G--4---|
C------|

BREAK
First Guitar

D-------------------------|
A-------------------------|
F-----66-x-6-x-66/777-----|
C-----66-x-6-x-66/777-----| 4x
G-----44-x-4-x-44/555-----|
C-------------------------|

Then second guitar 

D--------------------------------|
A--------------------------------|
F------------66-x-6-x-66/777-----|
C-131313\----66-x-6-x-66/777-----| 4x
G-131313\----44-x-4-x-44/555-----|
C-131313\------------------------|
 
VERSE I. 2X

D-----------------------------------------------|
A-----------------------------------------------|
F-----66-x-6-x-66/777---------------------------|
C-----66-x-6-x-66/777--66-x-6-x-66666-x-6-x-666-| 
G-----44-x-4-x-44/555--66-x-6-x-66666-x-6-x-666-|
C----------------------66-x-6-x-66666-x-6-x-666-|

D-------------------------------------------------------------|
A-------------------------------------------------------------|
F-------------------------------------------------------------|
C--88-x-8-x-8888-x-8-x-888-44-x-4-x-4444-66-x-6-x-6666--------| 
G--88-x-8-x-8888-x-8-x-888-44-x-4-x-4444-66-x-6-x-6666--------|
C--88-x-8-x-8888-x-8-x-888-44-x-4-x-4444-66-x-6-x-6666--------|

CHORUS
2x

Rhythm Guitar
D-----------------------------------------|
A-----------------------------------------|
F-----6666666-----------------------------|
C-----6666666-6666666-8888888-44444-66666-| 
G-----4444444-6666666-8888888-44444-66666-|
C-------------6666666-8888888-44444-66666-|

Lead Guitar 

D------------------------------------------|
A------------------------------------------|
F--13131313-11111111-10101010--8888--66666-|
C---x-x-x-x--x-x-x-x--x-x-x-x--xxxx--xxxxx-| 
G--11111111--9-9-9-9--8-8-8-8--6666--44444-|
C------------------------------------------|

D-----------------------------------------------------------|
A-----------------------------------------------------------|
F-101010--666-101010-1111--666-1111--131313-1111-1010-8888--|
C--x-x-x--xxx--x-x-x--x-x--xxx--x-x--x-x-x---x-x-x-x--xxxx--| 
G--8-8-8--444--8-8-8--9-9--444--9-9--111111--9-9-8-8--6666--|
C-----------------------------------------------------------|

SOLO
Behind solo rhythm guitar play Chorus

D-16b-14-16-1414-13-------------------------------------14-13-16-14-13---------------------------|
A-------------------14~-16b-16~\-----14----1314--14--16----------------15b-1313~---14--14b--14\--|
F----------------------------------13--13------13--13--13------------------------13--13---13-----|
C------------------------------------------------------------------------------------------------| 
G------------------------------------------------------------------------------------------------|
C------------------------------------------------------------------------------------------------|

D-----------------------------------------|
A-----------------------------------------|
F--/4b-4b-6b-6b-9b-11b-11b-13b-11b-11b\---|
C-----------------------------------------| 
G-----------------------------------------|
C-----------------------------------------|

D----------14--13----------------------------------------------|
A--14--16-----------16b-1414~---14--14b----14--16-14*----------|
F----13--13--13--13----------13--13---1313~--13----------------|
C--------------------------------------------------------------| 
G--------------------------------------------------------------|
C--------------------------------------------------------------|

INTERLUDE
RHYTHM GUITAR

D-------------------------|
A-------------------------|
F-----66666666------------|
C-----66666666------------| 4x
G-----44444444------------|
C-------------------------|
PM------------------------|

Then...

D--------------------------|
A--------------------------|
F-----666666-66-66666------|
C-----666666-66-66666------| 
G-----444444-44-46666------|
C--------------------------|
PM---------|    |----------|

D------------------------------------------------------|
A------------------------------------------------------|
F------------------------------------------------------|
C----666666-66666/888888-88-8888888/44444444-666666----| 
G----666666-66666/888888-88-8888888/44444444-666666----|
C----666666-66666/888888-88-8888888/44444444-666666----|
PM---------------------------------|

Lead Guitar

D-----------------------------------------|
A-----------------------------------------|
F-----6-6-6-6-6-6-6-6--5-5-5-5-5-5-5-5-5--|
C------6-6-6-6-6-6-6-6--6-6-6-6-6-6-6-6---| 
G-----------------------------------------|
C-----------------------------------------|
PM----------------------------------------|

D-----------------------------------------|
A-----------------------------------------|
F----3-3-3-3-3-3-3-3---6666666-8888888888-|
C-----4-4-4-4-4-4-4-4---------------------| 
G-----------------------------------------|
C-----------------------------------------|
PM-------------------|

CHORUS
2x

Rhythm Guitar
D-----------------------------------------|
A-----------------------------------------|
F-----6666666-----------------------------|
C-----6666666-6666666-8888888-44444-66666-| 
G-----4444444-6666666-8888888-44444-66666-|
C-------------6666666-8888888-44444-66666-|

Lead Guitar 

D------------------------------------------|
A------------------------------------------|
F--13131313-11111111-10101010--8888--66666-|
C---x-x-x-x--x-x-x-x--x-x-x-x--xxxx--xxxxx-| 
G--11111111--9-9-9-9--8-8-8-8--6666--44444-|
C------------------------------------------|

D-----------------------------------------------------------|
A-----------------------------------------------------------|
F-101010--666-101010-1111--666-1111--131313-1111-1010-8888--|
C--x-x-x--xxx--x-x-x--x-x--xxx--x-x--x-x-x---x-x-x-x--xxxx--| 
G--8-8-8--444--8-8-8--9-9--444--9-9--111111--9-9-8-8--6666--|
C-----------------------------------------------------------|

OUTRO

D-------------------------|
A-------------------------|
F-----66-x-6-x-66/777-----|
C-----66-x-6-x-66/777-----| 4x
G-----44-x-4-x-44/555-----|
C-------------------------|

After fourth time

D-----|
A-----|
F--6--|
C--6--|
G--4--|
C-----|


13. Blood Fades To Black (Reprise)



Rhythm Guitar:
(Repeat throughout the piece)
C|---------4----------------5------------------9------------------7-------|
G|-------4---4------------5---5--------------9---9--------------7---7-----|
E|------------------------------------------------------------------------|
B|-----6-------6--------7-------7---------11-------11---------9-------9---|
F|---6-----------6----7-----------7----11-------------11----9-----------9-|
C|-4----------------5----------------9--------------------7---------------|

C|---------4----------------5----------------0----------------0-------|
G|-------4---4------------5---5------------0---0------------0---0-----|
E|--------------------------------------------------------------------|
B|-----6-------6--------7-------7--------2-------2--------2-------2---|
F|---6-----------6----7-----------7----2-----------2----2-----------2-|
C|-4----------------5----------------0----------------0---------------|


The solo parts are mainly made up of harmonics and sound effects. Repeat solos 
throughout the piece.

Solo Part 1:
C|-4~-5~----7~-4~-5~----|
G|-------2~----------5~-|
E|----------------------|
B|----------------------|
F|----------------------|
C|----------------------|

Solo Part 2:
(These notes are held for a very long time. Listen to music to know when to change note.)
C|----4+~----7+~----|
G|-5~-----5~-----5~-|
E|------------------|
B|------------------|
F|------------------|
C|------------------|





______________________

| /   slide up
| \   slide down
| h   hammer-on
| ~   vibrato
| +   harmonic
| x   Mute note
| b   Bend

______________________
comments
print report bad tab
I want to post or [tab]
guest
You may want to rate the tab now too:
select rating
Please do not post tabs as comments. Select "correction" instead!