Oops, an error
Loading. Please wait.

Fang Bang Tab

1,574 views 1 this week
4 commentsread comments
1 2 3 4 5
accurate
x 2
Autoscroll
+/-
esc
set tempo
stop
Contributor
WARNING: You are trying to view
                                    content from Ultimate-Guitar.com
                                    in an unauthorized application,
                                    which is prohibited.

                                    Please use an official Ultimate
                                    Guitar Tabs application for iPhone,
                                    iPad or Android to access legitimate
                                    chords, guitar, bass, and drum tabs
                                    from Ultimate-Guitar.com database.

                                    Type "ultimate guitar tabs" in Apple
                                    App Store's or Android Market's
                                    search to find the application.
Tabbed By Robin Graves

1. Morgue Than Words

Intro(play 4x)

Eb-----
Bb-----
Gb-----
Db-----
Ab-4/9-
Db—4/9—

Verse/Chorus:

Eb--------------------------------------------------------|
Bb--------------------------------------------------------|
Gb--------------------------------------------------------|
Db--------------------------------------------------------|
Ab--99999999-44444444-66666666-22222222-------------------|
Db--99999999-44444444-66666666-22222222—------------------|

End:

Eb-------------------------------------------------------|
Bb-------------------------------------------------------|
Gb-------------------------------------------------------|
Db-------------------------------------------------------|
Ab--99999999-44444444-66666666-22222---------------------|
Db--99999999-44444444-66666666-22222—--------------------|

2. American Werewolves in London

Intro:

Eb------------------------------------------|
Bb------------------------------------------|
Gb------------------------------------------|
Db------------------------------------------|
Ab--111-1-3-1-333-3-3-4-444-4-4-6-111-1-3-1-|
Db--111-1-3-1-333-3-3-4-444-4-4-6-111-1-3-1-|

Verse:

Eb----------------------------------|
Bb----------------------------------|
Gb----------------------------------|
Db----------------------------------|
Ab--111-1-1-333-3-3-444-4-4---------|
Db--111-1-1-333-3-3-444-4-4—--------|

Pre-chorus:

Eb------------------------------------------------------------------------------|
Bb------------------------------------------------------------------------------|
Gb------------------------------------------------------------------------------|
Db------------------------------------------------------------------------------|
Ab-3333333333333333-1111111111111111-4444444444444444-3333333333333333----------|
Db—3333333333333333-1111111111111111-4444444444444444-3333333333333333----------|

Chorus:

Eb-------------------------------------------------------|
Bb-------------------------------------------------------|
Gb-------------------------------------------------------|
Db-66-666-666-666-55-555-555-555-33-333-333-333----------|
Ab—44-444-444-444-33-333-333-333-11-111-111-111----------|
Db-------------------------------------------------------|

Cont.

Eb--------------------------------|
Bb--------------------------------|
Gb--------------------------------|
Db--------------------------------|
Ab--44-444-444-444-66-666-666-666-|
Db--44-444-444-444-66-666-666-666-|

3. Home Sweet Homicide

Intro:

Eb-------------------------------------|
Bb-------------------------------------|
Gb-------------------------------------|
Db-------------------------------------|
Ab--77--2-2222-2-77-2-77-2-2-4-2-4-2-4-|
Db--77--2-2222-2-77-2-77-2-2-4-2-4-2-4-|

Verse/Chorus:

Eb---------------------------------------|
Bb---------------------------------------|
Gb---------------------------------------|
Db---------------------------------------|
Ab--77-2-222222-77-2-2-4-2-4-2-4---------|
Db--77-2-222222-77-2-2-4-2-4-2-4—--------|

Pre-Chorus:

Eb-------------------------------------------|
Bb-------------------------------------------|
Gb-------------------------------------------|
Db-------------------------------------------|
Ab--66666666-88888888-22-4-222-4-222-4-222-4-|
Db--66666666-88888888-22-4-222-4-222-4-222-4-|

Cont.
Eb-----------------------------------------------------|
Bb-----------------------------------------------------|
Gb-----------------------------------------------------|
Db-----------------------------------------------------|
Ab--66666666-88888888-99999999-11-11-11-11-11-11-11-11-|
Db--66666666-88888888-99999999-11-11-11-11-11-11-11-11-|


4. Faith in The Devil

Eb----------------------------|
Bb----------------------------|
Gb----------------------------|
Db----------------------------|
Ab--1-3-6-8-6-3-1-3-1-3-3-1-3-|
Db--1-3-6-8-6-3-1-3-1-3-3-1-3-|

Verse:

Eb------------|
Bb------------|
Gb------------|
Db------------|
Ab--1-3-6-3---|
Db--1-3-6-3---|

(play intro riff 4x)

Eb----------------------------|
Bb----------------------------|
Gb----------------------------|
Db----------------------------|
Ab--1-3-6-8-6-3-1-3-1-3-3-1-3-|
Db--1-3-6-8-6-3-1-3-1-3-3-1-3-|

(5th time)

Eb------------------------------|
Bb------------------------------|
Gb------------------------------|
Db------------------------------|
Ab--1-3-6-8-6-3-1-3-1-3-3-1-3-6-|
Db--1-3-6-8-6-3-1-3-1-3-3-1-3-6-|

Chorus:

Eb-----------------------------------------|
Bb-----------------------------------------|
Gb-----------------------------------------|
Db--6-6666---------------------------------|
Ab--4-4444--6-6666-33-1-333-1-333-1-333-1--|
Db----------6-6666-33-1-333-1-333-1-333-1--|

Eb----------------------------------------------------------------|
Bb----------------------------------------------------------------|
Gb----------------------------------------------------------------|
Db--6-6666--------------------------------------------------------|
Ab--4-4444--6-6666-8-8888-6~-12-----------------------------------|
Db----------6-6666-8-8888-6~-12—slide upwards---------------------|

Riff During Solo(play 4x)
Eb------------|
Bb------------|
Gb------------|
Db------------|
Ab--1-3-6-3---|
Db--1-3-6-3---|

(5th time)


Eb-----------|
Bb-----------|
Gb-----------|
Db-----------|
Ab--1-3-6----|
Db--1-3-6----|

End:

Eb------------------|
Bb------------------|
Gb------------------|
Db------------------|
Ab--1-3-3-1-3-6-3~--|
Db--1-3-3-1-3-6-3~--|

5. Happily Ever Cadaver

Intro:

Eb------------------------------|
Bb------------------------------|
Gb------------------------------|
Db------------------------------|
Ab--10-10-10-10-10-10-10p9-10p9-|
Db--10-10-10-10-10-10-10p9-10p9-|

First Verse:

Eb-----------------------------------------------------------------------|
Bb-----------------------------------------------------------------------|
Gb-----------------------------------------------------------------------|
Db-----------------------------------------------------------------------|
Ab--10-10-10-10-10-10-10-10-10-10-10-10--55-555-33-333-------------------|
Db--10-10-10-10-10-10-10-10-10-10-10-10--55-555-33-333—------------------|

Eb------------------------------|
Bb------------------------------|
Gb------------------------------|
Db------------------------------|
Ab--10-10-10-10-10-10--555-555--|
Db--10-10-10-10-10-10--555-555--|

Pre-Chorus:
----------------------------------------------------------------------------------|
Bb--------------------------------------------------------------------------------|
Gb--------------------------------------------------------------------------------|
Db--99-999-999-999--77-777-777-777--101010-101010101010-55-555-555----------------|
Ab--77-777-777-777--55-555-555-555—--8-8-8—8-8-8-8-8-8--33-333-333----------------|
Db--------------------------------------------------------------------------------|

Eb---------------------------------------------------------------------------------------|
Bb---------------------------------------------------------------------------------------|
Gb---------------------------------------------------------------------------------------|
Db--99-999-999-999--77-777-777-777--101010-101010101010-111111111111---------------------|
Ab--77-777-777-777--55-555-555-555—--8-8-8—8-8-8-8-8-8--9-9-9—9-9-9----------------------|
Db---------------------------------------------------------------------------------------|

End:

Eb----------------------------------|
Bb----------------------------------|
Gb----------------------------------|
Db----------------------------------|
Ab--10-10-10-10-10-10-10p9-10p9-5~--|
Db--10-10-10-10-10-10-10p9-10p9-5~--|


6. Curse Of Me

Intro/main riff:

Eb-----------------------------------------------------------------------|
Bb-----------------------------------------------------------------------|
Gb-----------------------------------------------------------------------|
Db-----------------------------------------------------------------------|
Ab---55555-88888--33333-11111--55555-88888-33333-1~----------------------|
Db—0-55555-88888-33333--11111-55555--88888-33333-1~----------------------|

Gtr. 2

Eb------------------------------------|
Bb------------------------------------|
Gb------------------------------------|
Db—5~--8~--3~--1~---------------------|
Ab------------------------------------|
Db------------------------------------|

Verse:

Eb----------------------------------------------------------------------|
Bb----------------------------------------------------------------------|
Gb----------------------------------------------------------------------|
Db----------------------------------------------------------------------|
Ab----55555-88888-33333-11111-55555-88888-33333-1~----------------------|
Db—---55555-88888-33333-11111-55555-88888-33333-1~----------------------|

Gtr. 2

Eb---------------------------------------------------------|
Bb---------------------------------------------------------|
Gb---------------------------------------------------------|
Db—7h8-888-7h8-888-7h8-888-8p7-5-3-1-1---------------------|
Ab---------------------------------------------------------|
Db---------------------------------------------------------|

Pre-Verse:

Eb-----------------------------------------------------------------------------------|
Bb-----------------------------------------------------------------------------------|
Gb-----------------------------------------------------------------------------------|
Db-----------------------------------------------------------------------------------|
Ab-1111111111111111-5555555555555555-11111111-00000000-5555-7777---------------------|
Db-1111111111111111-5555555555555555-11111111-00000000-5555-7777—--------------------|

Gtr. 2(this piece is most likely wrong)

Eb---------------------------------------------------------------------------------|
Bb---------------------------------------------------------------------------------|
Gb---------------------------------------------------------------------------------|
Db—88888-7-5-88888-7-5-33333-3-1-0-33333-3-1-0-88888-7-5-777-888-10-10-10----------|
Ab---------------------------------------------------------------------------------|
Db---------------------------------------------------------------------------------|

Solo:

Eb--------------------------------------------------------------------|
Bb--------------------------------------------------------------------|
Gb--------------------------------------------------------------------|
Db--------------------------------------------------------------------|
Ab--10--10-12-13--12-13-15--15-13-17-15-13-16-15-13-10-10-12-8-10-6-5-|
Db--------------------------------------------------------------------|

End:

Eb--------------------------------------------------------|
Bb--------------------------------------------------------|
Gb--------------------------------------------------------|
Db--------------------------------------------------------|
Ab—5~--8~--3~--1~--5~--8~--3~--1~--0~---------------------|
Db—5~--8~--3~--1~--5~--8~--3~--1~--0~---------------------|


7. Haddonfield

Verse:

Eb-------------------------------------------------|
Bb-------------------------------------------------|
Gb-------------------------------------------------|
Db--44-444-444-444-444-444-444-444--77-777-66-666--|
Ab--22-222-222-222-222-222-222-222--55-555-44-444--|
Db-------------------------------------------------|

Chorus:

Eb-------------------------------------------------------------------------|
Bb-------------------------------------------------------------------------|
Gb-------------------------------------------------------------------------|
Db--77-777-777-777-777--99-999-999-999-999-55-555-555-555-44-444-444-444---|
Ab--55-555-555-555-555--77-777-777-777-777-33-333-333-333-22-222-222-222---|
Db-------------------------------------------------------------------------|

Riff After Chorus:

Eb--------------------------|
Bb--------------------------|
Gb--------------------------|
Db--66-666-666-666-666-666--|
Ab--44-444-444-444-444-444--|
Db--------------------------|

Bridge:(3x)

Eb-----------------------------------------------------------------|
Bb-----------------------------------------------------------------|
Gb-----------------------------------------------------------------|
Db-1111111111111111111111-9-9-9-9-9-9-9-9-9-9-9--------------------|
Ab—9-9-9-9-9-9-9-9-9-9-9--7-7-7-7-7-7-7-7-7-7-7--------------------|
Db-----------------------------------------------------------------|

(4th time)

Eb---------------------------------------------------------------|
Bb---------------------------------------------------------------|
Gb---------------------------------------------------------------|
Db-111111111111111111111111-6666666666666666---------------------|
Ab—9-9-9-9-9-9-9-9-9-9-9-9--4444444444444444---------------------|
Db---------------------------------------------------------------|

End:

Eb-------------------------------------|
Bb-------------------------------------|
Gb-------------------------------------|
Db-7~--9~--5~--4~----------------------|
Ab—5~--7~--3~--2~----------------------|
Db-------------------------------------|

8. Too Much Blood

Intro:

Eb--------------|
Bb--------------|
Gb--------------|
Db--------------|
Ab--1-3333-1----|
Db--1-3333-1----|

Riff 2:

Eb----------------------------|
Bb----------------------------|
Gb----------------------------|
Db--88-10-8-8-10--88-10-XXXX--|
Ab--66--8-6-6--8--66-8--XXXX--|
Db----------------------------|

Riff 3:

Eb-----------------------------------------------------------|
Bb-----------------------------------------------------------|
Gb-----------------------------------------------------------|
Db-----------------------------------------------------------|
Ab--1-333-3-1-333-3-1-333-3-1-333-3-66666666-88888888--------|
Db--1-333-3-1-333-3-1-333-3-1-333-3-66666666-88888888--------|

Riff 4:

Eb--------------------------------------|
Bb--------------------------------------|
Gb--------------------------------------|
Db--------------------------------------|
Ab--66666666-88888888-99999999-88888888-|
Db--66666666-88888888-99999999-88888888-|

Riff 5:
Eb----------------------------------------------------------|
Bb----------------------------------------------------------|
Gb----------------------------------------------------------|
Db----------------------------------------------------------|
Ab--1-333-3-66666666-88888888-------------------------------|
Db--1-333-3—66666666-88888888—------------------------------|


9.Til Death Do us Party

Verse/Chorus

Eb------------------------------------------------------------------------|
Bb------------------------------------------------------------------------|
Gb------------------------------------------------------------------------|
Db------------------------------------------------------------------------|
Ab--XXXX-88-888-888-888-33-333-333-333-55-555-555-555-11-111-111-111-XXXX-|
Db--XXXX-88-888-888-888-33-333-333-333-55-555-555-555-11-111-111-111-XXXX-|

Verse: (same as chorus without the clicks)

Pre-Chorus:

Eb-----------------------------------------------------------------|
Bb-----------------------------------------------------------------|
Gb-----------------------------------------------------------------|
Db-----------------------------------------------------------------|
Ab--33-333-55-555-11-111-111-111-33-333-55-555-11-111-111-111-XXXX-|
Db--33-333-55-555-11-111-111-111-33-333-55-555-11-111-111-111-XXXX-|

Bridge:

Eb------------------------------------------------------------------------|
Bb------------------------------------------------------------------------|
Gb------------------------------------------------------------------------|
Db------------------------------------------------------------------------|
Ab—3~--555-3-5~-3~--555-3-5~--3~--5~--5---1~-3-XXXX-----------------------|
Db—3~--555-3-5~-3~--555-3-5~--3~--5~--5—--1~-3-XXXX—----------------------|

End:

Eb---------------------------------------------------|
Bb---------------------------------------------------|
Gb---------------------------------------------------|
Db---------------------------------------------------|
Ab—8~--3~--5~--5-1~----------------------------------|
Db—8~--3~--5~--5—1~----------------------------------|

10. Buried With Children


 Intro:

Eb----------------------------------------------------------|
Bb----------------------------------------------------------|
Gb----------------------------------------------------------|
Db----------------------------------------------------------|
Ab--77-4-4444-77-4--10-9-77-4-4444-22-4---------------------|
Db--77-4-4444-77-4--10-9-77-4-4444-22-4—--------------------|

Verse/Chorus:

Eb----------------------------------------------|
Bb----------------------------------------------|
Gb----------------------------------------------|
Db----------------------------------------------|
Ab--7-4--44-7-4-9-7-4-2-4-2---------------------|
Db--7-4--44-7-4-9-7-4-2-4-2—--------------------|

Eb-------------------------------------------------------------------|
Bb-------------------------------------------------------------------|
Gb-------------------------------------------------------------------|
Db-------------------------------------------------------------------|
Ab—4~--4~--7-4--7-4-7-4444-7-4444-7-4444-7-44-2-4--------------------|
Db—4~--4~--7-4--7-4-7-4444-7-4444-7-4444-7-44-2-4--------------------|

Pre-Chorus:(play this piece 3x)

Eb--------------------------------------------|
Bb--------------------------------------------|
Gb--------------------------------------------|
Db--------------------------------------------|
Ab--99-999-999-999-4444-2-4-------------------|
Db--99-999-999-999-4444-2-4—------------------|

(play this piece once)

Eb-----------------------------------------|
Bb-----------------------------------------|
Gb-----------------------------------------|
Db-----------------------------------------|
Ab--22-222-222-222-222---------------------|
Db--22-222-222-222-222—--------------------|

End:
Eb----------|
Bb----------|
Gb----------|
Db----------|
Ab--777-4~--|
Db--777-4~--|

11. Kill You Before You Kill Me

Verse:

Eb---------------------------------------------|
Bb---------------------------------------------|
Gb---------------------------------------------|
Db--55-555-44-444-22-222-55-555-77-777-99-999--|
Ab--33-333-22-222-00-000-33-333-55-555-77-777--|
Db---------------------------------------------|

Gtr. 2

Eb-----------------------------------------------|
Bb-----------------------------------------------|
Gb-----------------------------------------------|
Db—10~-9~-7~-10~-12~-12-14~----------------------|
Ab-----------------------------------------------|
Db-----------------------------------------------|

Optional Riff I threw In (this isn’t in the song, but it works well with it if you
the verse once then follow it with this)

Eb-------------------------------------------------------------------|
Bb-------------------------------------------------------------------|
Gb-------------------------------------------------------------------|
Db--55-555-44-444-22-222-55-555--99-999------------------------------|
Ab--33-333-22-222-00-000-33-333--77-777-77-777-777-------------------|
Db--------------------------------------77-777-777—------------------|

Chorus:(play this piece 3x)

Eb--------------------------------------------------|
Bb--------------------------------------------------|
Gb--------------------------------------------------|
Db--------------------------------------------------|
Ab--55-555-555-555-77-777-777-777-------------------|
Db--55-555-555-555-77-777-777-777—------------------|

(4th time)

Eb------------|
Bb------------|
Gb------------|
Db------------|
Ab--3333-0000-|
Db--3333-0000-|

Chorus:

Gtr. 2

Eb----------------------------------------------------------|
Bb----------------------------------------------------------|
Gb----------------------------------------------------------|
Db-pickslide—5~--7~--5~--7~-5~-7~-3~-0~---------------------|
Ab----------------------------------------------------------|
Db----------------------------------------------------------|

End: (4x)

Eb------------------|
Bb------------------|
Gb------------------|
Db-------------5~---|
Ab--3333-0000--3-~--|
Db--3333-0000-------|

Gtr. 2

Eb-----------------------------|
Bb-----------------------------|
Gb-----------------------------|
Db—3~-0~-10~-------------------|
Ab-----------------------------|
Db-----------------------------|

12. Die Sci-Fi


 Verse Riff:

Eb--------------------------------------|
Bb--------------------------------------|
Gb--------------------------------------|
Db--------------------------------------|
Ab--55555555-66666666-8888888888888888--|
Db--55555555-66666666-8888888888888888--|

Eb-------------------------------------------------------|
Bb-------------------------------------------------------|
Gb-------------------------------------------------------|
Db-------------------------------------------------------|
Ab--55555555-66666666-1111111111111111-------------------|
Db--55555555-66666666-1111111111111111—------------------|

Chorus Riff:

Eb--------------------------------------------------------|
Bb--------------------------------------------------------|
Gb--------------------------------------------------------|
Db--55555555-33333333-------------------------------------|
Ab--33333333-11111111--6666666666666666-------------------|
Db---------------------6666666666666666—------------------|

Eb-----------------------------------------|
Bb-----------------------------------------|
Gb-----------------------------------------|
Db--55555555-77777777—8~-------------------|
Ab--33333333-55555555—6~-------------------|
Db-----------------------------------------|

That's all. Except for "Burn The Flames", but it's a cover, so what's the point? These
all my versions of the songs and I tabbed them all on my own, so don't say I ripped off
elses tabs.
comments
We did not receive enough feedback on this tab! Please rate:
print report bad tab
1 2 3 4 5
4 comments total. Showing first comments.
-1 reply
Robin Graves wrote on December 28 2006, 09:09 am

Okay, once again my version of "Happily Cadaver" contains an incorrect pre-chorus. The last note (9 on ab/11 on db) should be moved done a 1/2 step to 10 on ab/12 on db. I'm also working on "Burn The Flames". So far i have the lead in the intro figured out, but i'm not going to tab it unless i can figure out the whole song.

-1 reply
Iowa wrote on July 5 2007, 11:04 pm

is american werewolves in london rite?

+3 reply
x-a7x-manson-x wrote on May 4 2008, 01:35 am

wtf umm wednesday 13 plays in C drop

I want to post or [tab]
guest
You may want to rate the tab now too:
select rating
Please do not post tabs as comments. Select "correction" instead!