Oops, an error
Loading. Please wait.

From Here To The Hearse Tab

ver2
ver2

Whole song

Interactive

More versions @911Tabs.com
692 views 1 this week
no commentswrite comment
1 2 3 4 5
please rate
Autoscroll
+/-
esc
set tempo
stop
Contributor
Hey! There's an official Ultimate Guitar app which is ideal
for learning songs when you're away from computer. Get the app
WARNING: You are trying to view
                                    content from Ultimate-Guitar.com
                                    in an unauthorized application,
                                    which is prohibited.

                                    Please use an official Ultimate
                                    Guitar Tabs application for iPhone,
                                    iPad or Android to access legitimate
                                    chords, guitar, bass, and drum tabs
                                    from Ultimate-Guitar.com database.

                                    Type "ultimate guitar tabs" in Apple
                                    App Store's or Android Market's
                                    search to find the application.
#----------------------------------PLEASE NOTE---------------------------------#
#This file is the author's own work and represents their interpretation of the #
#song. You may only use this file for private study, scholarship, or research. #
#------------------------------------------------------------------------------#

FROM HERE TO THE HEARSE
As recorded by Wednesday 13
(From the 2008 Album SKELETONS)

Transcribed by John 'Mac' Stacy - [ UG: Necro-cide ] and tonedeafidiot
        

Words and Music by Wednesday 13

Gtr I (C G C F A D) - 'Guitar 1'
Gtr II (C G C F A D) - 'Guitar 2'

 Intro
  Q=140
 4/4
  Gtr I
  E. S E E E E Q    Q  E E E E Q    E. S E E E E Q    Q   E E E E Q
|--------9---9-7--|------5---5-3--|--------9---9-7--|-------5---5-3--|
|-7----7----------|-3--3----------|-7----7----------|-3---3----------|
|-----------------|---------------|-----------------|----------------|
|-----------------|---------------|-----------------|----------------|
|-----------------|---------------|-----------------|----------------|
|-----------------|---------------|-----------------|----------------|
|
| Gtr II
| W                 W               W                 W
|-----------------|---------------|-----------------|----------------|
|-----------------|---------------|-----------------|----------------|
|-----------------|---------------|-----------------|----------------|
|-----------------|---------------|-----------------|-x\-------------|
|-----------------|---------------|-----------------|-x\-------------|
|-----------------|---------------|-----------------|-x\-------------|


  E. S E E E E Q    Q  E E E E Q    E. S E E E E Q    Q  E E E E Q
|--------9---9-7--|------5---5-3--|--------9---9-7--|------5---5-3---|
|-7----7----------|-3--3----------|-7----7----------|-3--3-----------|
|-----------------|---------------|-----------------|----------------|
|-----------------|---------------|-----------------|----------------|
|-----------------|---------------|-----------------|----------------|
|-----------------|---------------|-----------------|----------------|
|
| W                 W               W                 W
|-----------------|---------------|-----------------|----------------|
|-----------------|---------------|-----------------|----------------|
|-4---------------|---------------|-4---------------|----------------|
|-4---------------|-5-------------|-4---------------|-5--------------|
|-2---------------|-5-------------|-2---------------|-5--------------|
|-----------------|-5-------------|-----------------|-5--------------|


  E. S E E E E Q    Q  E E E E Q
|--------9---9-7--|------5---5-3--|
|-7----7----------|-3--3----------|
|-----------------|---------------|
|-----------------|---------------|
|-----------------|---------------|
|-----------------|---------------|
|
| W                 W
|-----------------|---------------|
|-----------------|---------------|
|-4---------------|---------------|
|-4---------------|-5-------------|
|-2---------------|-5-------------|
|-----------------|-5-------------|


  E E E E E E E E   E E E  E  +Q        +Q
|-----------------|-------14-(14)b16r==(14)b16r===||
|-7-7-7-7-7-7-7-7-|-7-7---------------------------||
|-----------------|-------------------------------||
|-----------------|-------------------------------||
|-----------------|-------------------------------||
|-----------------|-------------------------------||
|
| PM--------------------|
| E E E E E E E E   E E E  E   E     E   E     E
|-----------------|-------------------------------||
|-----------------|-------------------------------||
|-----------------|-------------------------------||
|-4-4-4-4-4-4-4-4-|-4-4-4--4---4-----4---4-----4--||
|-4-4-4-4-4-4-4-4-|-4-4-4--4---4-----4---4-----4--||
|-4-4-4-4-4-4-4-4-|-4-4-4--4---4-----4---4-----4--||


 Riff
   +Q       H.             +Q.     E  +Q        +Q
|-(14)b16r==============|=========14-(14)b16r==(14)b16r==|
|----------12-----------|-(12)---------------------------|
|-----------------------|--------------------------------|
|-----------------------|--------------------------------|
|-----------------------|--------------------------------|
|-----------------------|--------------------------------|
|
|   Q       Q   E E E E     Q   Q      E     E   E     E
|-----------------------|--------------------------------|
|-----------------------|--------------------------------|
|---4-------4---4-4-4-4-|--------------------------------|
|---4-------4---4-4-4-4-|---5---5------5-----5---5-----5-|
|---2-------2---2-2-2-2-|---5---5------5-----5---5-----5-|
|-----------------------|---5---5------5-----5---5-----5-|


   +Q       H.             +Q.     E  +Q        +Q
|-(14)b16r==============|=========14-(14)b16r==(14)b16r===|
|----------12-----------|-(12)----------------------------|
|-----------------------|---------------------------------|
|-----------------------|---------------------------------|
|-----------------------|---------------------------------|
|-----------------------|---------------------------------|
|
|   Q       Q   E E E E     Q   Q      E     E   E     E
|-----------------------|---------------------------------|
|-----------------------|---------------------------------|
|---4-------4---4-4-4-4-|---------------------------------|
|---4-------4---4-4-4-4-|---5---5------5-----5---5-----5--|
|---2-------2---2-2-2-2-|---5---5------5-----5---5-----5--|
|-----------------------|---5---5------5-----5---5-----5--|


   +Q       H.             +H       Q    Q
|-(14)b16r==============|==========19---17---|
|----------12-----------|-(12)---------------|
|-----------------------|--------------------|
|-----------------------|--------------------|
|-----------------------|--------------------|
|-----------------------|--------------------|
|
|   Q       Q   E E E E     Q   Q   E E  E E
|-----------------------|--------------------|
|-----------------------|--------------------|
|---4-------4---4-4-4-4-|--------------------|
|---4-------4---4-4-4-4-|---5---5---5-5--5-5-|
|---2-------2---2-2-2-2-|---5---5---5-5--5-5-|
|-----------------------|---5---5---5-5--5-5-|


   W                  +W
|------------------|---------------------||
|-19---------------|-(19)----------------||
|------------------|---------------------||
|------------------|---------------------||
|------------------|---------------------||
|------------------|---------------------||
|
|  PM---------------------------------|
|  E E E E E E E E     E  E E E E E E E
|------------------|---------------------||
|------------------|---------------------||
|------------------|---------------------||
|--4-4-4-4-4-4-4-4-|---4--4-4-4-4-4-4-4--||
|--4-4-4-4-4-4-4-4-|---4--4-4-4-4-4-4-4--||
|--4-4-4-4-4-4-4-4-|---4--4-4-4-4-4-4-4--||


 Verse
  Gtr II
            PM|             PM|             PM|             PM|
  Q  Q.   E E E   Q  Q.   E E E   Q  Q.   E E E   Q  Q.   E E E
|---------------|---------------|---------------|----------------|
|---------------|---------------|---------------|----------------|
|-4-------4-----|---------------|-4-------4-----|----------------|
|-4-------4-4-4-|-5-------5-----|-4-------4-4-4-|-5-------5------|
|-2-------2-2-2-|-5-------5-5-5-|-2-------2-2-2-|-5-------5-5-5--|
|---------------|-5-------5-5-5-|---------------|-5-------5-5-5--|


  Gtr I
  W               W               W
|---------------|---------------|-----------------|
|---------------|---------------|-----------------|
|---------------|---------------|-----------------|
|---------------|---------------|-----------------|
|---------------|---------------|-----------------|
|---------------|---------------|-----------------|
|
| Gtr II
|           PM|             PM---------------------
| Q  Q.   E E E   Q  Q.   E E E   E E E E E E E E
|---------------|---------------|-----------------|
|---------------|---------------|-----------------|
|-4-------4-----|---------------|-----------------|
|-4-------4-4-4-|-5-------5-----|-4-4-4-4-4-4-4-4-|
|-2-------2-2-2-|-5-------5-5-5-|-4-4-4-4-4-4-4-4-|
|---------------|-5-------5-5-5-|-4-4-4-4-4-4-4-4-|


  Q.      E  +Q        +Q
|--------14-(14)b16r==(14)b16r===|
|--------------------------------|
|--------------------------------|
|--------------------------------|
|--------------------------------|
|--------------------------------|
|
|------|
| E  E E  E   E     E   E     E
|--------------------------------|
|--------------------------------|
|--------------------------------|
|-4--4-4--4---4-----4---4-----4--|
|-4--4-4--4---4-----4---4-----4--|
|-4--4-4--4---4-----4---4-----4--|


   +Q       H.             +Q.     E  +Q        +Q
|-(14)b16r==============|=========14-(14)b16r==(14)b16r==|
|----------12-----------|-(12)---------------------------|
|-----------------------|--------------------------------|
|-----------------------|--------------------------------|
|-----------------------|--------------------------------|
|-----------------------|--------------------------------|
|
|   Q       Q   E E E E     Q   Q      E     E   E     E
|-----------------------|--------------------------------|
|-----------------------|--------------------------------|
|---4-------4---4-4-4-4-|--------------------------------|
|---4-------4---4-4-4-4-|---5---5------5-----5---5-----5-|
|---2-------2---2-2-2-2-|---5---5------5-----5---5-----5-|
|-----------------------|---5---5------5-----5---5-----5-|


   +Q       H.             +Q.     E  +Q        +Q
|-(14)b16r==============|=========14-(14)b16r==(14)b16r===|
|----------12-----------|-(12)----------------------------|
|-----------------------|---------------------------------|
|-----------------------|---------------------------------|
|-----------------------|---------------------------------|
|-----------------------|---------------------------------|
|
|   Q       Q   E E E E     Q   Q      E     E   E     E
|-----------------------|---------------------------------|
|-----------------------|---------------------------------|
|---4-------4---4-4-4-4-|---------------------------------|
|---4-------4---4-4-4-4-|---5---5------5-----5---5-----5--|
|---2-------2---2-2-2-2-|---5---5------5-----5---5-----5--|
|-----------------------|---5---5------5-----5---5-----5--|


   +Q       H.             +H       Q    Q
|-(14)b16r==============|==========19---17---|
|----------12-----------|-(12)---------------|
|-----------------------|--------------------|
|-----------------------|--------------------|
|-----------------------|--------------------|
|-----------------------|--------------------|
|
|   Q       Q   E E E E     Q   Q   E E  E E
|-----------------------|--------------------|
|-----------------------|--------------------|
|---4-------4---4-4-4-4-|--------------------|
|---4-------4---4-4-4-4-|---5---5---5-5--5-5-|
|---2-------2---2-2-2-2-|---5---5---5-5--5-5-|
|-----------------------|---5---5---5-5--5-5-|


   W                  +W
|------------------|---------------------||
|-19---------------|-(19)----------------||
|------------------|---------------------||
|------------------|---------------------||
|------------------|---------------------||
|------------------|---------------------||
|
|  PM---------------------------------|
|  E E E E E E E E     E  E E E E E E E
|------------------|---------------------||
|------------------|---------------------||
|------------------|---------------------||
|--4-4-4-4-4-4-4-4-|---4--4-4-4-4-4-4-4--||
|--4-4-4-4-4-4-4-4-|---4--4-4-4-4-4-4-4--||
|--4-4-4-4-4-4-4-4-|---4--4-4-4-4-4-4-4--||


 Pre-Chorus
   Q   Q   E  Q   E    Q    Q   E  Q   E
|-12--12--10-12--12-|-12---12--10-12--12-|
|-------------------|--------------------|
|-------------------|--------------------|
|-------------------|--------------------|
|-------------------|--------------------|
|-------------------|--------------------|
|
|  Q   Q   E  Q   E   +Q    Q   E  Q   E
|-------------------|--------------------|
|-------------------|--------------------|
|-------------------|--------------------|
|--2---2---0--2---2-|-(2)---2---0--2---2-|
|--2---2---0--2---2-|-(2)---2---0--2---2-|
|--2---2---0--2---2-|-(2)---2---0--2---2-|


   Q   Q   E  Q   E    +Q    Q   E  Q   E
|-14--14--12-14--14-|-(14)--14--12-14--12--|
|-------------------|----------------------|
|-------------------|----------------------|
|-------------------|----------------------|
|-------------------|----------------------|
|-------------------|----------------------|
|
|  Q   Q   E  Q   E    +Q    Q   E  Q   E
|-------------------|----------------------|
|-------------------|----------------------|
|--4---4---4--4---4-|--(4)---4---4--4---4--|
|--4---4---4--4---4-|--(4)---4---4--4---4--|
|--2---2---0--2---2-|--(2)---2---0--2---2--|
|-------------------|----------------------|


   Q   Q   E  Q   E    Q    Q   E  Q   E
|-12--12--10-12--12-|-12---12--10-12--12-|
|-------------------|--------------------|
|-------------------|--------------------|
|-------------------|--------------------|
|-------------------|--------------------|
|-------------------|--------------------|
|
|  Q   Q   E  Q   E   +Q    Q   E  Q   E
|-------------------|--------------------|
|-------------------|--------------------|
|-------------------|--------------------|
|--2---2---0--2---2-|-(2)---2---0--2---2-|
|--2---2---0--2---2-|-(2)---2---0--2---2-|
|--2---2---0--2---2-|-(2)---2---0--2---2-|


   E  E  E  E  E  E  E  E    E  E  E  E  +H
|-14-14-14-14-14-14-14-14-|-14-14-14-14-(14)b16r=======||
|-------------------------|----------------------------||
|-------------------------|----------------------------||
|-------------------------|----------------------------||
|-------------------------|----------------------------||
|-------------------------|----------------------------||
|
|  PM-----------------------------------------------|
|  E  E  E  E  E  E  E  E    E  E  E  E   E     E E E
|-------------------------|----------------------------||
|-------------------------|----------------------------||
|-------------------------|----------------------------||
|--4--4--4--4--4--4--4--4-|--4--4--4--4---4-----4-4-4--||
|--4--4--4--4--4--4--4--4-|--4--4--4--4---4-----4-4-4--||
|--4--4--4--4--4--4--4--4-|--4--4--4--4---4-----4-4-4--||


 Chorus
   +Q       H.             +Q.     E  +Q        +Q
|-(14)b16r==============|=========14-(14)b16r==(14)b16r==|
|----------12-----------|-(12)---------------------------|
|-----------------------|--------------------------------|
|-----------------------|--------------------------------|
|-----------------------|--------------------------------|
|-----------------------|--------------------------------|
|
|   Q       Q   E E E E     Q   Q      E     E   E     E
|-----------------------|--------------------------------|
|-----------------------|--------------------------------|
|---4-------4---4-4-4-4-|--------------------------------|
|---4-------4---4-4-4-4-|---5---5------5-----5---5-----5-|
|---2-------2---2-2-2-2-|---5---5------5-----5---5-----5-|
|-----------------------|---5---5------5-----5---5-----5-|


   +Q       H.             +Q.     E  +Q        +Q
|-(14)b16r==============|=========14-(14)b16r==(14)b16r===|
|----------12-----------|-(12)----------------------------|
|-----------------------|---------------------------------|
|-----------------------|---------------------------------|
|-----------------------|---------------------------------|
|-----------------------|---------------------------------|
|
|   Q       Q   E E E E     Q   Q      E     E   E     E
|-----------------------|---------------------------------|
|-----------------------|---------------------------------|
|---4-------4---4-4-4-4-|---------------------------------|
|---4-------4---4-4-4-4-|---5---5------5-----5---5-----5--|
|---2-------2---2-2-2-2-|---5---5------5-----5---5-----5--|
|-----------------------|---5---5------5-----5---5-----5--|


   +Q       H.             +H       Q    Q
|-(14)b16r==============|==========19---17---|
|----------12-----------|-(12)---------------|
|-----------------------|--------------------|
|-----------------------|--------------------|
|-----------------------|--------------------|
|-----------------------|--------------------|
|
|   Q       Q   E E E E     Q   Q   E E  E E
|-----------------------|--------------------|
|-----------------------|--------------------|
|---4-------4---4-4-4-4-|--------------------|
|---4-------4---4-4-4-4-|---5---5---5-5--5-5-|
|---2-------2---2-2-2-2-|---5---5---5-5--5-5-|
|-----------------------|---5---5---5-5--5-5-|


   W                  +W
|------------------|---------------------||
|-19---------------|-(19)----------------||
|------------------|---------------------||
|------------------|---------------------||
|------------------|---------------------||
|------------------|---------------------||
|
|  PM---------------------------------|
|  E E E E E E E E     E  E E E E E E E
|------------------|---------------------||
|------------------|---------------------||
|------------------|---------------------||
|--4-4-4-4-4-4-4-4-|---4--4-4-4-4-4-4-4--||
|--4-4-4-4-4-4-4-4-|---4--4-4-4-4-4-4-4--||
|--4-4-4-4-4-4-4-4-|---4--4-4-4-4-4-4-4--||


 Bridge
  E. S E E E E Q    Q  E E E E Q    E. S E E E E Q    Q  E E E E Q
|--------9---9-7--|------5---5-3--|--------9---9-7--|------5---5-3---|
|-7----7----------|-3--3----------|-7----7----------|-3--3-----------|
|-----------------|---------------|-----------------|----------------|
|-----------------|---------------|-----------------|----------------|
|-----------------|---------------|-----------------|----------------|
|-----------------|---------------|-----------------|----------------|


  E. S E E E E Q    Q  E E E E Q    E E E E E E E E   E E E E E E E E
|--------9---9-7--|------5---5-3--|-----------------|------------------||
|-7----7----------|-3--3----------|-7-7-7-7-7-7-7-7-|-7-7-7-7-7-7-7-7--||
|-----------------|---------------|-----------------|------------------||
|-----------------|---------------|-----------------|------------------||
|-----------------|---------------|-----------------|------------------||
|-----------------|---------------|-----------------|------------------||
|
| Gtr II
|                                   PM--------------------|
| W                 W               E E E E E E E E   E E E E E E E E
|-----------------|---------------|-----------------|------------------||
|-----------------|---------------|-----------------|------------------||
|-4---------------|---------------|-----------------|------------------||
|-4---------------|-5-------------|-4-4-4-4-4-4-4-4-|-4-4-4-4-4-4-4-4--||
|-2---------------|-5-------------|-4-4-4-4-4-4-4-4-|-4-4-4-4-4-4-4-4--||
|-----------------|-5-------------|-4-4-4-4-4-4-4-4-|-4-4-4-4-4-4-4-4--||


 Verse
  Gtr II
            PM|             PM|             PM|             PM|
  Q  Q.   E E E   Q  Q.   E E E   Q  Q.   E E E   Q  Q.   E E E
|---------------|---------------|---------------|----------------|
|---------------|---------------|---------------|----------------|
|-4-------4-----|---------------|-4-------4-----|----------------|
|-4-------4-4-4-|-5-------5-----|-4-------4-4-4-|-5-------5------|
|-2-------2-2-2-|-5-------5-5-5-|-2-------2-2-2-|-5-------5-5-5--|
|---------------|-5-------5-5-5-|---------------|-5-------5-5-5--|


  Gtr I
  W               W               W
|---------------|---------------|-----------------|
|---------------|---------------|-----------------|
|---------------|---------------|-----------------|
|---------------|---------------|-----------------|
|---------------|---------------|-----------------|
|---------------|---------------|-----------------|
|
| Gtr II
|           PM|             PM---------------------
| Q  Q.   E E E   Q  Q.   E E E   E E E E E E E E
|---------------|---------------|-----------------|
|---------------|---------------|-----------------|
|-4-------4-----|---------------|-----------------|
|-4-------4-4-4-|-5-------5-----|-4-4-4-4-4-4-4-4-|
|-2-------2-2-2-|-5-------5-5-5-|-4-4-4-4-4-4-4-4-|
|---------------|-5-------5-5-5-|-4-4-4-4-4-4-4-4-|


  Q.      E  +Q        +Q
|--------14-(14)b16r==(14)b16r===|
|--------------------------------|
|--------------------------------|
|--------------------------------|
|--------------------------------|
|--------------------------------|
|
|------|
| E  E E  E   E     E   E     E
|--------------------------------|
|--------------------------------|
|--------------------------------|
|-4--4-4--4---4-----4---4-----4--|
|-4--4-4--4---4-----4---4-----4--|
|-4--4-4--4---4-----4---4-----4--|


   Q      H.             +Q.     E  +Q        +Q
|-14b16r==============|=========14-(14)b16r==(14)b16r==|
|--------12-----------|-(12)---------------------------|
|---------------------|--------------------------------|
|---------------------|--------------------------------|
|---------------------|--------------------------------|
|---------------------|--------------------------------|
|
|  Q      Q   E E E E     Q   Q      E     E   E     E
|---------------------|--------------------------------|
|---------------------|--------------------------------|
|--4------4---4-4-4-4-|--------------------------------|
|--4------4---4-4-4-4-|---5---5------5-----5---5-----5-|
|--2------2---2-2-2-2-|---5---5------5-----5---5-----5-|
|---------------------|---5---5------5-----5---5-----5-|


   +Q       H.             +Q.     E  +Q        +Q
|-(14)b16r==============|=========14-(14)b16r==(14)b16r===|
|----------12-----------|-(12)----------------------------|
|-----------------------|---------------------------------|
|-----------------------|---------------------------------|
|-----------------------|---------------------------------|
|-----------------------|---------------------------------|
|
|   Q       Q   E E E E     Q   Q      E     E   E     E
|-----------------------|---------------------------------|
|-----------------------|---------------------------------|
|---4-------4---4-4-4-4-|---------------------------------|
|---4-------4---4-4-4-4-|---5---5------5-----5---5-----5--|
|---2-------2---2-2-2-2-|---5---5------5-----5---5-----5--|
|-----------------------|---5---5------5-----5---5-----5--|


   +Q       H.             +H       Q    Q
|-(14)b16r==============|==========19---17---|
|----------12-----------|-(12)---------------|
|-----------------------|--------------------|
|-----------------------|--------------------|
|-----------------------|--------------------|
|-----------------------|--------------------|
|
|   Q       Q   E E E E     Q   Q   E E  E E
|-----------------------|--------------------|
|-----------------------|--------------------|
|---4-------4---4-4-4-4-|--------------------|
|---4-------4---4-4-4-4-|---5---5---5-5--5-5-|
|---2-------2---2-2-2-2-|---5---5---5-5--5-5-|
|-----------------------|---5---5---5-5--5-5-|


   W                  +W
|------------------|---------------------||
|-19---------------|-(19)----------------||
|------------------|---------------------||
|------------------|---------------------||
|------------------|---------------------||
|------------------|---------------------||
|
|  PM---------------------------------|
|  E E E E E E E E     E  E E E E E E E
|------------------|---------------------||
|------------------|---------------------||
|------------------|---------------------||
|--4-4-4-4-4-4-4-4-|---4--4-4-4-4-4-4-4--||
|--4-4-4-4-4-4-4-4-|---4--4-4-4-4-4-4-4--||
|--4-4-4-4-4-4-4-4-|---4--4-4-4-4-4-4-4--||


 Pre-Chorus
   Q   Q   E  Q   E    Q    Q   E  Q   E
|-12--12--10-12--12-|-12---12--10-12--12-|
|-------------------|--------------------|
|-------------------|--------------------|
|-------------------|--------------------|
|-------------------|--------------------|
|-------------------|--------------------|
|
|  Q   Q   E  Q   E   +Q    Q   E  Q   E
|-------------------|--------------------|
|-------------------|--------------------|
|-------------------|--------------------|
|--2---2---0--2---2-|-(2)---2---0--2---2-|
|--2---2---0--2---2-|-(2)---2---0--2---2-|
|--2---2---0--2---2-|-(2)---2---0--2---2-|


   Q   Q   E  Q   E    +Q    Q   E  Q   E
|-14--14--12-14--14-|-(14)--14--12-14--12--|
|-------------------|----------------------|
|-------------------|----------------------|
|-------------------|----------------------|
|-------------------|----------------------|
|-------------------|----------------------|
|
|  Q   Q   E  Q   E    +Q    Q   E  Q   E
|-------------------|----------------------|
|-------------------|----------------------|
|--4---4---4--4---4-|--(4)---4---4--4---4--|
|--4---4---4--4---4-|--(4)---4---4--4---4--|
|--2---2---0--2---2-|--(2)---2---0--2---2--|
|-------------------|----------------------|


   Q   Q   E  Q   E    Q    Q   E  Q   E
|-12--12--10-12--12-|-12---12--10-12--12-|
|-------------------|--------------------|
|-------------------|--------------------|
|-------------------|--------------------|
|-------------------|--------------------|
|-------------------|--------------------|
|
|  Q   Q   E  Q   E   +Q    Q   E  Q   E
|-------------------|--------------------|
|-------------------|--------------------|
|-------------------|--------------------|
|--2---2---0--2---2-|-(2)---2---0--2---2-|
|--2---2---0--2---2-|-(2)---2---0--2---2-|
|--2---2---0--2---2-|-(2)---2---0--2---2-|


   E  E  E  E  E  E  E  E    E  E  E  E  +H
|-14-14-14-14-14-14-14-14-|-14-14-14-14-(14)b16r=======||
|-------------------------|----------------------------||
|-------------------------|----------------------------||
|-------------------------|----------------------------||
|-------------------------|----------------------------||
|-------------------------|----------------------------||
|
|  PM-----------------------------------------------|
|  E  E  E  E  E  E  E  E    E  E  E  E   E     E E E
|-------------------------|----------------------------||
|-------------------------|----------------------------||
|-------------------------|----------------------------||
|--4--4--4--4--4--4--4--4-|--4--4--4--4---4-----4-4-4--||
|--4--4--4--4--4--4--4--4-|--4--4--4--4---4-----4-4-4--||
|--4--4--4--4--4--4--4--4-|--4--4--4--4---4-----4-4-4--||


 Chorus
   +Q       H.             +Q.     E  +Q        +Q
|-(14)b16r==============|=========14-(14)b16r==(14)b16r==|
|----------12-----------|-(12)---------------------------|
|-----------------------|--------------------------------|
|-----------------------|--------------------------------|
|-----------------------|--------------------------------|
|-----------------------|--------------------------------|
|
|   Q       Q   E E E E     Q   Q      E     E   E     E
|-----------------------|--------------------------------|
|-----------------------|--------------------------------|
|---4-------4---4-4-4-4-|--------------------------------|
|---4-------4---4-4-4-4-|---5---5------5-----5---5-----5-|
|---2-------2---2-2-2-2-|---5---5------5-----5---5-----5-|
|-----------------------|---5---5------5-----5---5-----5-|


   +Q       H.             +Q.     E  +Q        +Q
|-(14)b16r==============|=========14-(14)b16r==(14)b16r===|
|----------12-----------|-(12)----------------------------|
|-----------------------|---------------------------------|
|-----------------------|---------------------------------|
|-----------------------|---------------------------------|
|-----------------------|---------------------------------|
|
|   Q       Q   E E E E     Q   Q      E     E   E     E
|-----------------------|---------------------------------|
|-----------------------|---------------------------------|
|---4-------4---4-4-4-4-|---------------------------------|
|---4-------4---4-4-4-4-|---5---5------5-----5---5-----5--|
|---2-------2---2-2-2-2-|---5---5------5-----5---5-----5--|
|-----------------------|---5---5------5-----5---5-----5--|


   +Q       H.             +H       Q    Q
|-(14)b16r==============|==========19---17---|
|----------12-----------|-(12)---------------|
|-----------------------|--------------------|
|-----------------------|--------------------|
|-----------------------|--------------------|
|-----------------------|--------------------|
|
|   Q       Q   E E E E     Q   Q   E E  E E
|-----------------------|--------------------|
|-----------------------|--------------------|
|---4-------4---4-4-4-4-|--------------------|
|---4-------4---4-4-4-4-|---5---5---5-5--5-5-|
|---2-------2---2-2-2-2-|---5---5---5-5--5-5-|
|-----------------------|---5---5---5-5--5-5-|


   W                  +W
|------------------|---------------------||
|-19---------------|-(19)----------------||
|------------------|---------------------||
|------------------|---------------------||
|------------------|---------------------||
|------------------|---------------------||
|
|  PM---------------------------------|
|  E E E E E E E E     E  E E E E E E E
|------------------|---------------------||
|------------------|---------------------||
|------------------|---------------------||
|--4-4-4-4-4-4-4-4-|---4--4-4-4-4-4-4-4--||
|--4-4-4-4-4-4-4-4-|---4--4-4-4-4-4-4-4--||
|--4-4-4-4-4-4-4-4-|---4--4-4-4-4-4-4-4--||


 Guitar Solo
  Q  Q  Q   E E   +W                Q  Q  Q   E E   +W
|---------------|-----------------|---------------|------------------|
|-8--7--5---7-7-|-(7)-------------|-8--7--5-------|------------------|
|---------------|-----------------|-----------4-4-|-(4)--------------|
|---------------|-----------------|---------------|------------------|
|---------------|-----------------|---------------|------------------|
|---------------|-----------------|---------------|------------------|
|
| Q  Q  E E E E    Q   Q  E E E E   Q  Q  E E E E    Q   Q  E E E E
|---------------|-----------------|---------------|------------------|
|---------------|-----------------|---------------|------------------|
|-4--4--4-4-4-4-|-----------------|-4--4--4-4-4-4-|------------------|
|-4--4--4-4-4-4-|--5---5--5-5-5-5-|-4--4--4-4-4-4-|--5---5--5-5-5-5--|
|-2--2--2-2-2-2-|--5---5--5-5-5-5-|-2--2--2-2-2-2-|--5---5--5-5-5-5--|
|---------------|--5---5--5-5-5-5-|---------------|--5---5--5-5-5-5--|


   E  E  E  E  Q    Q      +W
|-15-15-14-14-12---14---|-(14)-------------|
|-----------------------|------------------|
|-----------------------|------------------|
|-----------------------|------------------|
|-----------------------|------------------|
|-----------------------|------------------|
|
|  Q     Q     E E  E E     Q   Q  E E E E
|-----------------------|------------------|
|-----------------------|------------------|
|--4-----4-----4-4--4-4-|------------------|
|--4-----4-----4-4--4-4-|---5---5--5-5-5-5-|
|--2-----2-----2-2--2-2-|---5---5--5-5-5-5-|
|-----------------------|---5---5--5-5-5-5-|


    ~~~~~~~~~~~~~~~~~~~~~~~
    W                  +W
|-/19---------------|-(19)----------------||
|-------------------|---------------------||
|-------------------|---------------------||
|-------------------|---------------------||
|-------------------|---------------------||
|-------------------|---------------------||
|
|   PM---------------------------------|
|   E E E E E E E E     E  E E E E E E E
|-------------------|---------------------||
|-------------------|---------------------||
|-------------------|---------------------||
|---4-4-4-4-4-4-4-4-|---4--4-4-4-4-4-4-4--||
|---4-4-4-4-4-4-4-4-|---4--4-4-4-4-4-4-4--||
|---4-4-4-4-4-4-4-4-|---4--4-4-4-4-4-4-4--||


 Pre-Chorus
   Q   Q   E  Q   E    Q    Q   E  Q   E
|-12--12--10-12--12-|-12---12--10-12--12-|
|-------------------|--------------------|
|-------------------|--------------------|
|-------------------|--------------------|
|-------------------|--------------------|
|-------------------|--------------------|
|
|  Q   Q   E  Q   E   +Q    Q   E  Q   E
|-------------------|--------------------|
|-------------------|--------------------|
|-------------------|--------------------|
|--2---2---0--2---2-|-(2)---2---0--2---2-|
|--2---2---0--2---2-|-(2)---2---0--2---2-|
|--2---2---0--2---2-|-(2)---2---0--2---2-|


   Q   Q   E  Q   E    +Q    Q   E  Q   E
|-14--14--12-14--14-|-(14)--14--12-14--12--|
|-------------------|----------------------|
|-------------------|----------------------|
|-------------------|----------------------|
|-------------------|----------------------|
|-------------------|----------------------|
|
|  Q   Q   E  Q   E    +Q    Q   E  Q   E
|-------------------|----------------------|
|-------------------|----------------------|
|--4---4---4--4---4-|--(4)---4---4--4---4--|
|--4---4---4--4---4-|--(4)---4---4--4---4--|
|--2---2---0--2---2-|--(2)---2---0--2---2--|
|-------------------|----------------------|


   Q   Q   E  Q   E    Q    Q   E  Q   E
|-12--12--10-12--12-|-12---12--10-12--12-|
|-------------------|--------------------|
|-------------------|--------------------|
|-------------------|--------------------|
|-------------------|--------------------|
|-------------------|--------------------|
|
|  Q   Q   E  Q   E   +Q    Q   E  Q   E
|-------------------|--------------------|
|-------------------|--------------------|
|-------------------|--------------------|
|--2---2---0--2---2-|-(2)---2---0--2---2-|
|--2---2---0--2---2-|-(2)---2---0--2---2-|
|--2---2---0--2---2-|-(2)---2---0--2---2-|


   E  E  E  E  E  E  E  E    E  E  E  E  +H
|-14-14-14-14-14-14-14-14-|-14-14-14-14-(14)b16r=======||
|-------------------------|----------------------------||
|-------------------------|----------------------------||
|-------------------------|----------------------------||
|-------------------------|----------------------------||
|-------------------------|----------------------------||
|
|  PM-----------------------------------------------|
|  E  E  E  E  E  E  E  E    E  E  E  E   E     E E E
|-------------------------|----------------------------||
|-------------------------|----------------------------||
|-------------------------|----------------------------||
|--4--4--4--4--4--4--4--4-|--4--4--4--4---4-----4-4-4--||
|--4--4--4--4--4--4--4--4-|--4--4--4--4---4-----4-4-4--||
|--4--4--4--4--4--4--4--4-|--4--4--4--4---4-----4-4-4--||


 Chorus
   +Q       H.             +Q.     E  +Q        +Q
|-(14)b16r==============|=========14-(14)b16r==(14)b16r==|
|----------12-----------|-(12)---------------------------|
|-----------------------|--------------------------------|
|-----------------------|--------------------------------|
|-----------------------|--------------------------------|
|-----------------------|--------------------------------|
|
|   Q       Q   E E E E     Q   Q      E     E   E     E
|-----------------------|--------------------------------|
|-----------------------|--------------------------------|
|---4-------4---4-4-4-4-|--------------------------------|
|---4-------4---4-4-4-4-|---5---5------5-----5---5-----5-|
|---2-------2---2-2-2-2-|---5---5------5-----5---5-----5-|
|-----------------------|---5---5------5-----5---5-----5-|


   +Q       H.             +Q.     E  +Q        +Q
|-(14)b16r==============|=========14-(14)b16r==(14)b16r===|
|----------12-----------|-(12)----------------------------|
|-----------------------|---------------------------------|
|-----------------------|---------------------------------|
|-----------------------|---------------------------------|
|-----------------------|---------------------------------|
|
|   Q       Q   E E E E     Q   Q      E     E   E     E
|-----------------------|---------------------------------|
|-----------------------|---------------------------------|
|---4-------4---4-4-4-4-|---------------------------------|
|---4-------4---4-4-4-4-|---5---5------5-----5---5-----5--|
|---2-------2---2-2-2-2-|---5---5------5-----5---5-----5--|
|-----------------------|---5---5------5-----5---5-----5--|


   +Q       H.             +H       Q    Q
|-(14)b16r==============|==========19---17---|
|----------12-----------|-(12)---------------|
|-----------------------|--------------------|
|-----------------------|--------------------|
|-----------------------|--------------------|
|-----------------------|--------------------|
|
|   Q       Q   E E E E     Q   Q   E E  E E
|-----------------------|--------------------|
|-----------------------|--------------------|
|---4-------4---4-4-4-4-|--------------------|
|---4-------4---4-4-4-4-|---5---5---5-5--5-5-|
|---2-------2---2-2-2-2-|---5---5---5-5--5-5-|
|-----------------------|---5---5---5-5--5-5-|


   W                  +W
|------------------|---------------------||
|-19---------------|-(19)----------------||
|------------------|---------------------||
|------------------|---------------------||
|------------------|---------------------||
|------------------|---------------------||
|
|  PM---------------------------------|
|  E E E E E E E E     E  E E E E E E E
|------------------|---------------------||
|------------------|---------------------||
|------------------|---------------------||
|--4-4-4-4-4-4-4-4-|---4--4-4-4-4-4-4-4--||
|--4-4-4-4-4-4-4-4-|---4--4-4-4-4-4-4-4--||
|--4-4-4-4-4-4-4-4-|---4--4-4-4-4-4-4-4--||


 Outro
  E. S E E E E Q    Q  E E E E Q    E. S E E E E Q    Q  E E E E Q
|--------9---9-7--|------5---5-3--|--------9---9-7--|------5---5-3---|
|-7----7----------|-3--3----------|-7----7----------|-3--3-----------|
|-----------------|---------------|-----------------|----------------|
|-----------------|---------------|-----------------|----------------|
|-----------------|---------------|-----------------|----------------|
|-----------------|---------------|-----------------|----------------|


  E. S E E E E Q    Q  E E E E Q
|--------9---9-7--|------5---5-3--|
|-7----7----------|-3--3----------|
|-----------------|---------------|
|-----------------|---------------|
|-----------------|---------------|
|-----------------|---------------|
|
| Gtr II
| W                 W
|-----------------|---------------|
|-----------------|---------------|
|-4---------------|---------------|
|-4---------------|-5-------------|
|-2---------------|-5-------------|
|-----------------|-5-------------|


  E E E E E E E E   E E E E E E E E   Q   H.
|-----------------|-----------------|--------------*|
|-7-7-7-7-7-7-7-7-|-7-7-7-7-7-7-7-7-|-7\-----------*|
|-----------------|-----------------|--------------*|
|-----------------|-----------------|--------------*|
|-----------------|-----------------|--------------*|
|-----------------|-----------------|--------------*|
|
| PM--------------------|
| E E E E E E E E   E E E E E E E E   H       H
|-----------------|-----------------|--------------*|
|-----------------|-----------------|--------------*|
|-----------------|-----------------|--------------*|
|-5-5-5-5-5-5-5-5-|-5-5-5-5-5-5-5-5-|-4\-----------*|
|-5-5-5-5-5-5-5-5-|-5-5-5-5-5-5-5-5-|-4\-----------*|
|-5-5-5-5-5-5-5-5-|-5-5-5-5-5-5-5-5-|-4\-----------*|



Duration Legend
---------------
W - whole; H - half; Q - quarter; E - 8th; S - 16th; T - 32nd; X - 64th; a - acciaccatura
+ - note tied to previous; . - note dotted; .. - note double dotted
Uncapitalized letters represent notes that are staccato (1/2 duration)
Irregular groupings are notated above the duration line
Duration letters will always appear directly above the note/fret number it represents the
duration for.  Duration letters with no fret number below them represent rests.  Multi-
bar rests are notated in the form Wxn, where n is the number of bars to rest for.  Low
melody durations appear below the staff

Tablature Legend
----------------
 h   - hammer-on
 p   - pull-off
 b   - bend
 pb  - pre-bend
 r   - bend release (if no number after the r, then release immediately)
 /\  - slide into or out of (from/to "nowhere")
 s   - legato slide
 S   - shift slide
 - natural harmonic
[n]  - artificial harmonic
n(n) - tapped harmonic
 ~   - vibrato
 tr  - trill
 T   - tap
 TP  - trem. picking
 PM  - palm muting
\n/  - tremolo bar dip; n = amount to dip
 \n  - tremolo bar down
 n/  - tremolo bar up
/n\  - tremolo bar inverted dip
 =   - hold bend; also acts as connecting device for hammers/pulls
 <> - volume swell (louder/softer)
 x   - on rhythm slash represents muted slash
 o   - on rhythm slash represents single note slash

Misc Legend
-----------
 |  - bar
||  - double bar
||o - repeat start
o|| - repeat end
*|  - double bar (ending)
 :  - bar (freetime)
 $  - Segno
 &  - Coda
Tempo markers -  = BPM(8/16=s8/s16), where s8 = swing 8ths, s16 = swing 16ths

comments
We did not receive enough feedback on this tab! Please rate:
print report bad tab
1 2 3 4 5
I want to post or [tab]
guest
You may want to rate the tab now too:
select rating
Please do not post tabs as comments. Select "correction" instead!