Oops, an error
Loading. Please wait.

Ghost Of Vincent Price Tab

ver2
ver2

Solo

Whole song

Interactive

More versions @911Tabs.com
260 views 1 this week
no commentswrite comment
1 2 3 4 5
please rate
Autoscroll
+/-
esc
set tempo
stop
Contributor
Hey! There's an official Ultimate Guitar app which is ideal
for learning songs when you're away from computer. Get the app
WARNING: You are trying to view
                                    content from Ultimate-Guitar.com
                                    in an unauthorized application,
                                    which is prohibited.

                                    Please use an official Ultimate
                                    Guitar Tabs application for iPhone,
                                    iPad or Android to access legitimate
                                    chords, guitar, bass, and drum tabs
                                    from Ultimate-Guitar.com database.

                                    Type "ultimate guitar tabs" in Apple
                                    App Store's or Android Market's
                                    search to find the application.
#----------------------------------PLEASE NOTE---------------------------------#
#This file is the author's own work and represents their interpretation of the #
#song. You may only use this file for private study, scholarship, or research. #
#------------------------------------------------------------------------------#

THE GHOST OF VICENT PRICE
As recorded by Wednesday 13
(From the 2005 Album TRANSYLVANIA 90210 - SONGS OF DEATH, DYING AND THE DEAD)

Transcribed by 6M6M6
        

Words and Music by Wednesday 13

Gtr I (C A D G B D) - 'Keyboard'
Gtr II (C G C F A D) - 'Guitar 1'
Gtr III (C G C F A D) - 'Guitar 2'

  Q=92
 4/4
  Gtr I
   ~~    ~~~~~~~~~~~~~~~~~    ~~             ~~~~~~~~~~           ~~
   H     E.  E.  E     H      H       H      E.  E.  E     H      H
|-10----13--12--10--|--------------|-10-----13--12--10--|--------------|
|-------------------|-11-----------|--------------------|-11-----------|
|-------------------|--------12----|--------------------|--------12----|
|-------------------|--------------|--------------------|--------------|
|--5----------------|-(5)----------|-(5)----------------|-(5)----------|
|-------------------|--------------|--------------------|--------------|
   W                  +W             +W                   +W


   ~~~ ~~~~~~~~~~~~~~~~~~~~~~~    ~~~~~~~~~~~ ~~~~~~~~~~~~~~~~~~~~~~~    ~~
   E   Q.    E.  E.  E     H      H       E   Q.    E.  E.  E     H      H
|-----------------------|--------------|-----------------------|--------------|
|-----10----11--10------|--------------|-----10----11--10------|--------------|
|-------------------12--|-10-----12----|-------------------12--|-10-----12----|
|-12--------------------|--------------|-12--------------------|--------------|
|-(5)-------------------|-(5)----------|-(5)-------------------|-(5)----------|
|-----------------------|--------------|-----------------------|--------------|
| +W                      +W             +W                      +W
|
| Gtrs II, III
|  W                       H      H       W                       H      H
|-----------------------|--------------|-----------------------|--------------|
|-----------------------|--------------|-----------------------|--------------|
|--7--------------------|--------------|--7--------------------|--------------|
|--7--------------------|--8------5----|--7--------------------|--8------5----|
|--5--------------------|--8------5----|--5--------------------|--8------5----|
|-----------------------|--8------5----|-----------------------|--8------5----|


  Gtr II
   S S  S  S S S S S  S  S S  S  S S  S S    S S S S S S S S  S S S S S S S S
|-----------------------------------------|-----------------------------------|
|-----------------------------------------|-----------------------------------|
|--7-7--7--7-7-7-7-7--7--7-7--7--7-7--7-7-|-----------------------------------|
|--7-7--7--7-7-7-7-7--7--7-7--7--7-7--7-7-|--8-8-8-8-8-8-8-8--8-8-8-8-8-8-8-8-|
|--5-5--5--5-5-5-5-5--5--5-5--5--5-5--5-5-|--8-8-8-8-8-8-8-8--8-8-8-8-8-8-8-8-|
|-----------------------------------------|--8-8-8-8-8-8-8-8--8-8-8-8-8-8-8-8-|
|
| Gtr III
|       ~~~                                  ~~~~~~~~~~~~~~~~~~~
|  E    Q.            E.      E.      E      H                H
|-----------------------------------------|-----------------------------------|
|------10------------11------10-----------|-----------------------------------|
|------------------------------------12---|-10---------------12---------------|
|-12--------------------------------------|-----------------------------------|
|-----------------------------------------|-----------------------------------|
|-----------------------------------------|-----------------------------------|


   S S  S  S S S S S  S  S S  S  S S  S S    S S S S S S S S  S S S S S S S S
|-----------------------------------------|-----------------------------------|
|-----------------------------------------|-----------------------------------|
|--7-7--7--7-7-7-7-7--7--7-7--7--7-7--7-7-|-----------------------------------|
|--7-7--7--7-7-7-7-7--7--7-7--7--7-7--7-7-|--8-8-8-8-8-8-8-8--8-8-8-8-8-8-8-8-|
|--5-5--5--5-5-5-5-5--5--5-5--5--5-5--5-5-|--8-8-8-8-8-8-8-8--8-8-8-8-8-8-8-8-|
|-----------------------------------------|--8-8-8-8-8-8-8-8--8-8-8-8-8-8-8-8-|
|
|       ~~~                                  ~~~~~~~~~~~~~~~~~~~
|  E    Q.            E.      E.      E      H                H
|-----------------------------------------|-----------------------------------|
|------10------------11------10-----------|-----------------------------------|
|------------------------------------12---|-10---------------12---------------|
|-12--------------------------------------|-----------------------------------|
|-----------------------------------------|-----------------------------------|
|-----------------------------------------|-----------------------------------|


  Gtrs II, III
    PM------------------------|     PM--------|   PM--------|
  E S S S S S S S S S S S S S S   E S S S S S S E S S S S S S
|-------------------------------|-----------------------------|
|-------------------------------|-----------------------------|
|-7-7-7-7-7-7-7-7-7-7-7-7-7-7-7-|-----------------------------|
|-7-7-7-7-7-7-7-7-7-7-7-7-7-7-7-|-8-8-8-8-8-8-8-5-5-5-5-5-5-5-|
|-5-5-5-5-5-5-5-5-5-5-5-5-5-5-5-|-8-8-8-8-8-8-8-5-5-5-5-5-5-5-|
|-------------------------------|-8-8-8-8-8-8-8-5-5-5-5-5-5-5-|


    PM------------------------|     PM--------|   PM--------|
  E S S S S S S S S S S S S S S   E S S S S S S E S S S S S S
|-------------------------------|-----------------------------|
|-------------------------------|-----------------------------|
|-7-7-7-7-7-7-7-7-7-7-7-7-7-7-7-|-----------------------------|
|-7-7-7-7-7-7-7-7-7-7-7-7-7-7-7-|-8-8-8-8-8-8-8-5-5-5-5-5-5-5-|
|-5-5-5-5-5-5-5-5-5-5-5-5-5-5-5-|-8-8-8-8-8-8-8-5-5-5-5-5-5-5-|
|-------------------------------|-8-8-8-8-8-8-8-5-5-5-5-5-5-5-|


    PM------------------------|     PM--------|   PM--------|
  E S S S S S S S S S S S S S S   E S S S S S S E S S S S S S
|-------------------------------|-----------------------------|
|-------------------------------|-----------------------------|
|-7-7-7-7-7-7-7-7-7-7-7-7-7-7-7-|-----------------------------|
|-7-7-7-7-7-7-7-7-7-7-7-7-7-7-7-|-8-8-8-8-8-8-8-5-5-5-5-5-5-5-|
|-5-5-5-5-5-5-5-5-5-5-5-5-5-5-5-|-8-8-8-8-8-8-8-5-5-5-5-5-5-5-|
|-------------------------------|-8-8-8-8-8-8-8-5-5-5-5-5-5-5-|


    PM------------------------|     PM--------|   PM--------|
  E S S S S S S S S S S S S S S   E S S S S S S E S S S S S S
|-------------------------------|-----------------------------|
|-------------------------------|-----------------------------|
|-7-7-7-7-7-7-7-7-7-7-7-7-7-7-7-|-----------------------------|
|-7-7-7-7-7-7-7-7-7-7-7-7-7-7-7-|-8-8-8-8-8-8-8-5-5-5-5-5-5-5-|
|-5-5-5-5-5-5-5-5-5-5-5-5-5-5-5-|-8-8-8-8-8-8-8-5-5-5-5-5-5-5-|
|-------------------------------|-8-8-8-8-8-8-8-5-5-5-5-5-5-5-|


   S S  S  S S S S S  S  S S  S  S S  S S    S S S S S S S S  S S S S S S S S
|-----------------------------------------|-----------------------------------|
|-----------------------------------------|-----------------------------------|
|--7-7--7--7-7-7-7-7--7--7-7--7--7-7--7-7-|-----------------------------------|
|--7-7--7--7-7-7-7-7--7--7-7--7--7-7--7-7-|--8-8-8-8-8-8-8-8--5-5-5-5-5-5-5-5-|
|--5-5--5--5-5-5-5-5--5--5-5--5--5-5--5-5-|--8-8-8-8-8-8-8-8--5-5-5-5-5-5-5-5-|
|-----------------------------------------|--8-8-8-8-8-8-8-8--5-5-5-5-5-5-5-5-|
|
| Gtr III
|       ~~~                                  ~~~~~~~~~~~~~~~~~~~
|  E    Q.            E.      E.      E      H                H
|-----------------------------------------|-----------------------------------|
|------10------------11------10-----------|-----------------------------------|
|------------------------------------12---|-10---------------12---------------|
|-12--------------------------------------|-----------------------------------|
|-----------------------------------------|-----------------------------------|
|-----------------------------------------|-----------------------------------|


   S S  S  S S S S S  S  S S  S  S S  S S    S S S S S S S S  S S S S S S S S
|-----------------------------------------|-----------------------------------|
|-----------------------------------------|-----------------------------------|
|--7-7--7--7-7-7-7-7--7--7-7--7--7-7--7-7-|-----------------------------------|
|--7-7--7--7-7-7-7-7--7--7-7--7--7-7--7-7-|--8-8-8-8-8-8-8-8--5-5-5-5-5-5-5-5-|
|--5-5--5--5-5-5-5-5--5--5-5--5--5-5--5-5-|--8-8-8-8-8-8-8-8--5-5-5-5-5-5-5-5-|
|-----------------------------------------|--8-8-8-8-8-8-8-8--5-5-5-5-5-5-5-5-|
|
|       ~~~                                  ~~~~~~~~~~~~~~~~~~~
|  E    Q.            E.      E.      E      H                H
|-----------------------------------------|-----------------------------------|
|------10------------11------10-----------|-----------------------------------|
|------------------------------------12---|-10---------------12---------------|
|-12--------------------------------------|-----------------------------------|
|-----------------------------------------|-----------------------------------|
|-----------------------------------------|-----------------------------------|


   S  S S S S S S S S S S S  S  S  S S    S  S S S S S S S S S S S  S  S  S S
|--------------------------------------|--------------------------------------|
|--------------------------------------|--------------------------------------|
|--------------------------------------|--------------------------------------|
|--3--3-3-3-3-3-3-3-3-3-3-3--3--3--5-5-|--7--7-7-7-7-7-7-7-7-7-7-7--7--7--5-5-|
|--3--3-3-3-3-3-3-3-3-3-3-3--3--3--5-5-|--7--7-7-7-7-7-7-7-7-7-7-7--7--7--5-5-|
|--3--3-3-3-3-3-3-3-3-3-3-3--3--3--5-5-|--7--7-7-7-7-7-7-7-7-7-7-7--7--7--5-5-|
|
|  ~~~                                    ~~~
|  H.                        S  E.        H.                        S  E.
|--------------------------------------|--------------------------------------|
|--------------------------------------|--------------------------------------|
|-10------------------------10-12------|-14------------------------14-12------|
|--------------------------------------|--------------------------------------|
|--------------------------------------|--------------------------------------|
|--------------------------------------|--------------------------------------|


   S  S S S S S S S S S S S  S  S  S S    S  S S S S S S S S S S S  S  S  S S
|--------------------------------------|--------------------------------------|
|--------------------------------------|--------------------------------------|
|--------------------------------------|--------------------------------------|
|--3--3-3-3-3-3-3-3-3-3-3-3--3--3--5-5-|--7--7-7-7-7-7-7-7-7-7-7-7--7--7--5-5-|
|--3--3-3-3-3-3-3-3-3-3-3-3--3--3--5-5-|--7--7-7-7-7-7-7-7-7-7-7-7--7--7--5-5-|
|--3--3-3-3-3-3-3-3-3-3-3-3--3--3--5-5-|--7--7-7-7-7-7-7-7-7-7-7-7--7--7--5-5-|
|
|  ~~~                                    ~~~
|  H.                        S  E.        H.                        S  E.
|--------------------------------------|--------------------------------------|
|--------------------------------------|--------------------------------------|
|-10------------------------10-12------|-14------------------------14-12------|
|--------------------------------------|--------------------------------------|
|--------------------------------------|--------------------------------------|
|--------------------------------------|--------------------------------------|


   S  S S S S S S S S S S S  S  S  S S    S  S S S S S S S S S S S  S  S  S S
|--------------------------------------|--------------------------------------|
|--------------------------------------|--------------------------------------|
|--------------------------------------|--------------------------------------|
|--3--3-3-3-3-3-3-3-3-3-3-3--3--3--5-5-|--7--7-7-7-7-7-7-7-7-7-7-7--7--7--5-5-|
|--3--3-3-3-3-3-3-3-3-3-3-3--3--3--5-5-|--7--7-7-7-7-7-7-7-7-7-7-7--7--7--5-5-|
|--3--3-3-3-3-3-3-3-3-3-3-3--3--3--5-5-|--7--7-7-7-7-7-7-7-7-7-7-7--7--7--5-5-|
|
|  ~~~                                    ~~~
|  H.                        S  E.        H.                        S  E.
|--------------------------------------|--------------------------------------|
|--------------------------------------|--------------------------------------|
|-10------------------------10-12------|-14------------------------14-12------|
|--------------------------------------|--------------------------------------|
|--------------------------------------|--------------------------------------|
|--------------------------------------|--------------------------------------|


   S  S S S S S S S S S S S  S  S  S S    S S S S S S S S S S S S S S S S
|--------------------------------------|----------------------------------|
|--------------------------------------|----------------------------------|
|--------------------------------------|----------------------------------|
|--3--3-3-3-3-3-3-3-3-3-3-3--3--3--5-5-|--2-2-2-2-2-2-2-2-2-2-2-2-2-2-2-2-|
|--3--3-3-3-3-3-3-3-3-3-3-3--3--3--5-5-|--2-2-2-2-2-2-2-2-2-2-2-2-2-2-2-2-|
|--3--3-3-3-3-3-3-3-3-3-3-3--3--3--5-5-|--2-2-2-2-2-2-2-2-2-2-2-2-2-2-2-2-|
|
|  ~~~                                    ~~
|  H.                        S  E.        W
|--------------------------------------|----------------------------------|
|--------------------------------------|----------------------------------|
|-10------------------------10-12------|----------------------------------|
|--------------------------------------|-14-------------------------------|
|--------------------------------------|----------------------------------|
|--------------------------------------|----------------------------------|


   S S  S  S S S S S  S  S S  S  S S  S S    S S S S S S S S  S S S S S S S S
|-----------------------------------------|-----------------------------------|
|-----------------------------------------|-----------------------------------|
|--7-7--7--7-7-7-7-7--7--7-7--7--7-7--7-7-|-----------------------------------|
|--7-7--7--7-7-7-7-7--7--7-7--7--7-7--7-7-|--8-8-8-8-8-8-8-8--5-5-5-5-5-5-5-5-|
|--5-5--5--5-5-5-5-5--5--5-5--5--5-5--5-5-|--8-8-8-8-8-8-8-8--5-5-5-5-5-5-5-5-|
|-----------------------------------------|--8-8-8-8-8-8-8-8--5-5-5-5-5-5-5-5-|
|
|       ~~~                                  ~~~~~~~~~~~~~~~~~~~
|  E    Q.            E.      E.      E      H                H
|-----------------------------------------|-----------------------------------|
|------10------------11------10-----------|-----------------------------------|
|------------------------------------12---|-10---------------12---------------|
|-12--------------------------------------|-----------------------------------|
|-----------------------------------------|-----------------------------------|
|-----------------------------------------|-----------------------------------|


   S S  S  S S S S S  S  S S  S  S S  S S    S S S S S S S S  S S S S S S S S
|-----------------------------------------|-----------------------------------|
|-----------------------------------------|-----------------------------------|
|--7-7--7--7-7-7-7-7--7--7-7--7--7-7--7-7-|-----------------------------------|
|--7-7--7--7-7-7-7-7--7--7-7--7--7-7--7-7-|--8-8-8-8-8-8-8-8--5-5-5-5-5-5-5-5-|
|--5-5--5--5-5-5-5-5--5--5-5--5--5-5--5-5-|--8-8-8-8-8-8-8-8--5-5-5-5-5-5-5-5-|
|-----------------------------------------|--8-8-8-8-8-8-8-8--5-5-5-5-5-5-5-5-|
|
|       ~~~                                  ~~~~~~~~~~~~~~~~~~~
|  E    Q.            E.      E.      E      H                H
|-----------------------------------------|-----------------------------------|
|------10------------11------10-----------|-----------------------------------|
|------------------------------------12---|-10---------------12---------------|
|-12--------------------------------------|-----------------------------------|
|-----------------------------------------|-----------------------------------|
|-----------------------------------------|-----------------------------------|


   S S  S  S S S S S  S  S S  S  S S  S S    S S S S S S S S  S S S S S S S S
|-----------------------------------------|-----------------------------------|
|-----------------------------------------|-----------------------------------|
|--7-7--7--7-7-7-7-7--7--7-7--7--7-7--7-7-|-----------------------------------|
|--7-7--7--7-7-7-7-7--7--7-7--7--7-7--7-7-|--8-8-8-8-8-8-8-8--5-5-5-5-5-5-5-5-|
|--5-5--5--5-5-5-5-5--5--5-5--5--5-5--5-5-|--8-8-8-8-8-8-8-8--5-5-5-5-5-5-5-5-|
|-----------------------------------------|--8-8-8-8-8-8-8-8--5-5-5-5-5-5-5-5-|
|
|       ~~~                                  ~~~~~~~~~~~~~~~~~~~
|  E    Q.            E.      E.      E      H                H
|-----------------------------------------|-----------------------------------|
|------10------------11------10-----------|-----------------------------------|
|------------------------------------12---|-10---------------12---------------|
|-12--------------------------------------|-----------------------------------|
|-----------------------------------------|-----------------------------------|
|-----------------------------------------|-----------------------------------|


   S S  S  S S S S S  S  S S  S  S S  S S    S S S S S S S S  S S S S S S S S
|-----------------------------------------|-----------------------------------|
|-----------------------------------------|-----------------------------------|
|--7-7--7--7-7-7-7-7--7--7-7--7--7-7--7-7-|-----------------------------------|
|--7-7--7--7-7-7-7-7--7--7-7--7--7-7--7-7-|--8-8-8-8-8-8-8-8--5-5-5-5-5-5-5-5-|
|--5-5--5--5-5-5-5-5--5--5-5--5--5-5--5-5-|--8-8-8-8-8-8-8-8--5-5-5-5-5-5-5-5-|
|-----------------------------------------|--8-8-8-8-8-8-8-8--5-5-5-5-5-5-5-5-|
|
|       ~~~                                  ~~~~~~~~~~~~~~~~~~~
|  E    Q.            E.      E.      E      H                H
|-----------------------------------------|-----------------------------------|
|------10------------11------10-----------|-----------------------------------|
|------------------------------------12---|-10---------------12---------------|
|-12--------------------------------------|-----------------------------------|
|-----------------------------------------|-----------------------------------|
|-----------------------------------------|-----------------------------------|


  Gtrs II, III
   W                      H      H       W                       H      H
|----------------------|--------------|-----------------------|--------------|
|----------------------|--------------|-----------------------|--------------|
|--7-------------------|--------------|--7--------------------|--------------|
|--7-------------------|--8------5----|--7--------------------|--8------5----|
|--5-------------------|--8------5----|--5--------------------|--8------5----|
|----------------------|--8------5----|-----------------------|--8------5----|
|
| Gtr I
|  ~~ ~~~~~~~~~~~~~~~~~~~~~~~    ~~~~~~~~~~~ ~~~~~~~~~~~~~~~~~~~~~~~    ~~
|  E  Q.    E.  E.  E     H      H       E   Q.    E.  E.  E     H      H
|----------------------|--------------|-----------------------|--------------|
|----10----11--10------|--------------|-----10----11--10------|--------------|
|------------------12--|-10-----12----|-------------------12--|-10-----12----|
|-12-------------------|--------------|-12--------------------|--------------|
|--5-------------------|-(5)----------|-(5)-------------------|-(5)----------|
|----------------------|--------------|-----------------------|--------------|
   W                     +W             +W                      +W


    PM------------------------|     PM--------|   PM--------|
  E S S S S S S S S S S S S S S   E S S S S S S E S S S S S S
|-------------------------------|-----------------------------|
|-------------------------------|-----------------------------|
|-7-7-7-7-7-7-7-7-7-7-7-7-7-7-7-|-----------------------------|
|-7-7-7-7-7-7-7-7-7-7-7-7-7-7-7-|-8-8-8-8-8-8-8-5-5-5-5-5-5-5-|
|-5-5-5-5-5-5-5-5-5-5-5-5-5-5-5-|-8-8-8-8-8-8-8-5-5-5-5-5-5-5-|
|-------------------------------|-8-8-8-8-8-8-8-5-5-5-5-5-5-5-|


    PM------------------------|     PM--------|   PM--------|
  E S S S S S S S S S S S S S S   E S S S S S S E S S S S S S
|-------------------------------|-----------------------------|
|-------------------------------|-----------------------------|
|-7-7-7-7-7-7-7-7-7-7-7-7-7-7-7-|-----------------------------|
|-7-7-7-7-7-7-7-7-7-7-7-7-7-7-7-|-8-8-8-8-8-8-8-5-5-5-5-5-5-5-|
|-5-5-5-5-5-5-5-5-5-5-5-5-5-5-5-|-8-8-8-8-8-8-8-5-5-5-5-5-5-5-|
|-------------------------------|-8-8-8-8-8-8-8-5-5-5-5-5-5-5-|


    PM------------------------|     PM--------|   PM--------|
  E S S S S S S S S S S S S S S   E S S S S S S E S S S S S S
|-------------------------------|-----------------------------|
|-------------------------------|-----------------------------|
|-7-7-7-7-7-7-7-7-7-7-7-7-7-7-7-|-----------------------------|
|-7-7-7-7-7-7-7-7-7-7-7-7-7-7-7-|-8-8-8-8-8-8-8-5-5-5-5-5-5-5-|
|-5-5-5-5-5-5-5-5-5-5-5-5-5-5-5-|-8-8-8-8-8-8-8-5-5-5-5-5-5-5-|
|-------------------------------|-8-8-8-8-8-8-8-5-5-5-5-5-5-5-|


    PM------------------------|     PM--------|   PM--------|
  E S S S S S S S S S S S S S S   E S S S S S S E S S S S S S
|-------------------------------|-----------------------------|
|-------------------------------|-----------------------------|
|-7-7-7-7-7-7-7-7-7-7-7-7-7-7-7-|-----------------------------|
|-7-7-7-7-7-7-7-7-7-7-7-7-7-7-7-|-8-8-8-8-8-8-8-5-5-5-5-5-5-5-|
|-5-5-5-5-5-5-5-5-5-5-5-5-5-5-5-|-8-8-8-8-8-8-8-5-5-5-5-5-5-5-|
|-------------------------------|-8-8-8-8-8-8-8-5-5-5-5-5-5-5-|


   S S  S  S S S S S  S  S S  S  S S  S S    S S S S S S S S  S S S S S S S S
|-----------------------------------------|-----------------------------------|
|-----------------------------------------|-----------------------------------|
|--7-7--7--7-7-7-7-7--7--7-7--7--7-7--7-7-|-----------------------------------|
|--7-7--7--7-7-7-7-7--7--7-7--7--7-7--7-7-|--8-8-8-8-8-8-8-8--5-5-5-5-5-5-5-5-|
|--5-5--5--5-5-5-5-5--5--5-5--5--5-5--5-5-|--8-8-8-8-8-8-8-8--5-5-5-5-5-5-5-5-|
|-----------------------------------------|--8-8-8-8-8-8-8-8--5-5-5-5-5-5-5-5-|
|
| Gtr III
|       ~~~                                  ~~~~~~~~~~~~~~~~~~~
|  E    Q.            E.      E.      E      H                H
|-----------------------------------------|-----------------------------------|
|------10------------11------10-----------|-----------------------------------|
|------------------------------------12---|-10---------------12---------------|
|-12--------------------------------------|-----------------------------------|
|-----------------------------------------|-----------------------------------|
|-----------------------------------------|-----------------------------------|


   S S  S  S S S S S  S  S S  S  S S  S S    S S S S S S S S  S S S S S S S S
|-----------------------------------------|-----------------------------------|
|-----------------------------------------|-----------------------------------|
|--7-7--7--7-7-7-7-7--7--7-7--7--7-7--7-7-|-----------------------------------|
|--7-7--7--7-7-7-7-7--7--7-7--7--7-7--7-7-|--8-8-8-8-8-8-8-8--5-5-5-5-5-5-5-5-|
|--5-5--5--5-5-5-5-5--5--5-5--5--5-5--5-5-|--8-8-8-8-8-8-8-8--5-5-5-5-5-5-5-5-|
|-----------------------------------------|--8-8-8-8-8-8-8-8--5-5-5-5-5-5-5-5-|
|
|       ~~~                                  ~~~~~~~~~~~~~~~~~~~
|  E    Q.            E.      E.      E      H                H
|-----------------------------------------|-----------------------------------|
|------10------------11------10-----------|-----------------------------------|
|------------------------------------12---|-10---------------12---------------|
|-12--------------------------------------|-----------------------------------|
|-----------------------------------------|-----------------------------------|
|-----------------------------------------|-----------------------------------|


   S  S S S S S S S S S S S  S  S  S S    S  S S S S S S S S S S S  S  S  S S
|--------------------------------------|--------------------------------------|
|--------------------------------------|--------------------------------------|
|--------------------------------------|--------------------------------------|
|--3--3-3-3-3-3-3-3-3-3-3-3--3--3--5-5-|--7--7-7-7-7-7-7-7-7-7-7-7--7--7--5-5-|
|--3--3-3-3-3-3-3-3-3-3-3-3--3--3--5-5-|--7--7-7-7-7-7-7-7-7-7-7-7--7--7--5-5-|
|--3--3-3-3-3-3-3-3-3-3-3-3--3--3--5-5-|--7--7-7-7-7-7-7-7-7-7-7-7--7--7--5-5-|
|
|  ~~~                                    ~~~
|  H.                        S  E.        H.                        S  E.
|--------------------------------------|--------------------------------------|
|--------------------------------------|--------------------------------------|
|-10------------------------10-12------|-14------------------------14-12------|
|--------------------------------------|--------------------------------------|
|--------------------------------------|--------------------------------------|
|--------------------------------------|--------------------------------------|


   S  S S S S S S S S S S S  S  S  S S    S  S S S S S S S S S S S  S  S  S S
|--------------------------------------|--------------------------------------|
|--------------------------------------|--------------------------------------|
|--------------------------------------|--------------------------------------|
|--3--3-3-3-3-3-3-3-3-3-3-3--3--3--5-5-|--7--7-7-7-7-7-7-7-7-7-7-7--7--7--5-5-|
|--3--3-3-3-3-3-3-3-3-3-3-3--3--3--5-5-|--7--7-7-7-7-7-7-7-7-7-7-7--7--7--5-5-|
|--3--3-3-3-3-3-3-3-3-3-3-3--3--3--5-5-|--7--7-7-7-7-7-7-7-7-7-7-7--7--7--5-5-|
|
|  ~~~                                    ~~~
|  H.                        S  E.        H.                        S  E.
|--------------------------------------|--------------------------------------|
|--------------------------------------|--------------------------------------|
|-10------------------------10-12------|-14------------------------14-12------|
|--------------------------------------|--------------------------------------|
|--------------------------------------|--------------------------------------|
|--------------------------------------|--------------------------------------|


   S  S S S S S S S S S S S  S  S  S S    S  S S S S S S S S S S S  S  S  S S
|--------------------------------------|--------------------------------------|
|--------------------------------------|--------------------------------------|
|--------------------------------------|--------------------------------------|
|--3--3-3-3-3-3-3-3-3-3-3-3--3--3--5-5-|--7--7-7-7-7-7-7-7-7-7-7-7--7--7--5-5-|
|--3--3-3-3-3-3-3-3-3-3-3-3--3--3--5-5-|--7--7-7-7-7-7-7-7-7-7-7-7--7--7--5-5-|
|--3--3-3-3-3-3-3-3-3-3-3-3--3--3--5-5-|--7--7-7-7-7-7-7-7-7-7-7-7--7--7--5-5-|
|
|  ~~~                                    ~~~
|  H.                        S  E.        H.                        S  E.
|--------------------------------------|--------------------------------------|
|--------------------------------------|--------------------------------------|
|-10------------------------10-12------|-14------------------------14-12------|
|--------------------------------------|--------------------------------------|
|--------------------------------------|--------------------------------------|
|--------------------------------------|--------------------------------------|


   S  S S S S S S S S S S S  S  S  S S    S S S S S S S S S S S S S S S S
|--------------------------------------|----------------------------------|
|--------------------------------------|----------------------------------|
|--------------------------------------|----------------------------------|
|--3--3-3-3-3-3-3-3-3-3-3-3--3--3--5-5-|--2-2-2-2-2-2-2-2-2-2-2-2-2-2-2-2-|
|--3--3-3-3-3-3-3-3-3-3-3-3--3--3--5-5-|--2-2-2-2-2-2-2-2-2-2-2-2-2-2-2-2-|
|--3--3-3-3-3-3-3-3-3-3-3-3--3--3--5-5-|--2-2-2-2-2-2-2-2-2-2-2-2-2-2-2-2-|
|
|  ~~~                                    ~~
|  H.                        S  E.        W
|--------------------------------------|----------------------------------|
|--------------------------------------|----------------------------------|
|-10------------------------10-12------|----------------------------------|
|--------------------------------------|-14-------------------------------|
|--------------------------------------|----------------------------------|
|--------------------------------------|----------------------------------|


   S S  S  S S S S S  S  S S  S  S S  S S    S S S S S S S S  S S S S S S S S
|-----------------------------------------|-----------------------------------|
|-----------------------------------------|-----------------------------------|
|--7-7--7--7-7-7-7-7--7--7-7--7--7-7--7-7-|-----------------------------------|
|--7-7--7--7-7-7-7-7--7--7-7--7--7-7--7-7-|--8-8-8-8-8-8-8-8--5-5-5-5-5-5-5-5-|
|--5-5--5--5-5-5-5-5--5--5-5--5--5-5--5-5-|--8-8-8-8-8-8-8-8--5-5-5-5-5-5-5-5-|
|-----------------------------------------|--8-8-8-8-8-8-8-8--5-5-5-5-5-5-5-5-|
|
|       ~~~                                  ~~~~~~~~~~~~~~~~~~~
|  E    Q.            E.      E.      E      H                H
|-----------------------------------------|-----------------------------------|
|------10------------11------10-----------|-----------------------------------|
|------------------------------------12---|-10---------------12---------------|
|-12--------------------------------------|-----------------------------------|
|-----------------------------------------|-----------------------------------|
|-----------------------------------------|-----------------------------------|


   S S  S  S S S S S  S  S S  S  S S  S S    S S S S S S S S  S S S S S S S S
|-----------------------------------------|-----------------------------------|
|-----------------------------------------|-----------------------------------|
|--7-7--7--7-7-7-7-7--7--7-7--7--7-7--7-7-|-----------------------------------|
|--7-7--7--7-7-7-7-7--7--7-7--7--7-7--7-7-|--8-8-8-8-8-8-8-8--5-5-5-5-5-5-5-5-|
|--5-5--5--5-5-5-5-5--5--5-5--5--5-5--5-5-|--8-8-8-8-8-8-8-8--5-5-5-5-5-5-5-5-|
|-----------------------------------------|--8-8-8-8-8-8-8-8--5-5-5-5-5-5-5-5-|
|
|       ~~~                                  ~~~~~~~~~~~~~~~~~~~
|  E    Q.            E.      E.      E      H                H
|-----------------------------------------|-----------------------------------|
|------10------------11------10-----------|-----------------------------------|
|------------------------------------12---|-10---------------12---------------|
|-12--------------------------------------|-----------------------------------|
|-----------------------------------------|-----------------------------------|
|-----------------------------------------|-----------------------------------|


   S S  S  S S S S S  S  S S  S  S S  S S    S S S S S S S S  S S S S S S S S
|-----------------------------------------|-----------------------------------|
|-----------------------------------------|-----------------------------------|
|--7-7--7--7-7-7-7-7--7--7-7--7--7-7--7-7-|-----------------------------------|
|--7-7--7--7-7-7-7-7--7--7-7--7--7-7--7-7-|--8-8-8-8-8-8-8-8--5-5-5-5-5-5-5-5-|
|--5-5--5--5-5-5-5-5--5--5-5--5--5-5--5-5-|--8-8-8-8-8-8-8-8--5-5-5-5-5-5-5-5-|
|-----------------------------------------|--8-8-8-8-8-8-8-8--5-5-5-5-5-5-5-5-|
|
|       ~~~                                  ~~~~~~~~~~~~~~~~~~~
|  E    Q.            E.      E.      E      H                H
|-----------------------------------------|-----------------------------------|
|------10------------11------10-----------|-----------------------------------|
|------------------------------------12---|-10---------------12---------------|
|-12--------------------------------------|-----------------------------------|
|-----------------------------------------|-----------------------------------|
|-----------------------------------------|-----------------------------------|


   S S  S  S S S S S  S  S S  S  S S  S S    S S S S S S S S  S S S S S S S S
|-----------------------------------------|-----------------------------------|
|-----------------------------------------|-----------------------------------|
|--7-7--7--7-7-7-7-7--7--7-7--7--7-7--7-7-|-----------------------------------|
|--7-7--7--7-7-7-7-7--7--7-7--7--7-7--7-7-|--8-8-8-8-8-8-8-8--5-5-5-5-5-5-5-5-|
|--5-5--5--5-5-5-5-5--5--5-5--5--5-5--5-5-|--8-8-8-8-8-8-8-8--5-5-5-5-5-5-5-5-|
|-----------------------------------------|--8-8-8-8-8-8-8-8--5-5-5-5-5-5-5-5-|
|
|       ~~~                                  ~~~~~~~~~~~~~~~~~~~
|  E    Q.            E.      E.      E      H                H
|-----------------------------------------|-----------------------------------|
|------10------------11------10-----------|-----------------------------------|
|------------------------------------12---|-10---------------12---------------|
|-12--------------------------------------|-----------------------------------|
|-----------------------------------------|-----------------------------------|
|-----------------------------------------|-----------------------------------|


   S  S S S S S S S S S S S  S  S  S S    S S S S S S S S  S S S S  S S S S
|--------------------------------------|------------------------------------|
|--------------------------------------|------------------------------------|
|--7--7-7-7-7-7-7-7-7-7-7-7--7--7--7-7-|------------------------------------|
|--7--7-7-7-7-7-7-7-7-7-7-7--7--7--7-7-|--8-8-8-8-8-8-8-8--5-5-5-5--5-5-5-5-|
|--5--5-5-5-5-5-5-5-5-5-5-5--5--5--5-5-|--8-8-8-8-8-8-8-8--5-5-5-5--5-5-5-5-|
|--------------------------------------|--8-8-8-8-8-8-8-8--5-5-5-5--5-5-5-5-|
|
|  ~~~~~~~~~~~~~~~~~~~~~~~~~~~~~~~~~~~~~~~~~~~~~~~~~~~~~~~~~~~~~~~~~~~
|  H.                        S  E.        H                Q        Q
|--------------------------------------|------------------------------------|
|-15------------------------17S18------|-15---------------18-------17-------|
|--------------------------------------|------------------------------------|
|--------------------------------------|------------------------------------|
|--------------------------------------|------------------------------------|
|--------------------------------------|------------------------------------|


   S S S S S S S S S S S S S S S S    S S S S S S S S  S S S S S S S S
|----------------------------------|-----------------------------------|
|----------------------------------|-----------------------------------|
|--7-7-7-7-7-7-7-7-7-7-7-7-7-7-7-7-|-----------------------------------|
|--7-7-7-7-7-7-7-7-7-7-7-7-7-7-7-7-|--8-8-8-8-8-8-8-8--5-5-5-5-5-5-5-5-|
|--5-5-5-5-5-5-5-5-5-5-5-5-5-5-5-5-|--8-8-8-8-8-8-8-8--5-5-5-5-5-5-5-5-|
|----------------------------------|--8-8-8-8-8-8-8-8--5-5-5-5-5-5-5-5-|
|
|  ~~~~~~~~~~~~~~~~~~~~~~~~~~~~~~~~~~~~~~~~~~~~~~~~~~~~~~
|  W                                  H                H
|-17-------------------------------|-18---------------15---------------|
|----------------------------------|-----------------------------------|
|----------------------------------|-----------------------------------|
|----------------------------------|-----------------------------------|
|----------------------------------|-----------------------------------|
|----------------------------------|-----------------------------------|


   S S S S S S S S S S S S S S S S    S S S S S S S S  S S S S S S S S
|----------------------------------|-----------------------------------|
|----------------------------------|-----------------------------------|
|--7-7-7-7-7-7-7-7-7-7-7-7-7-7-7-7-|-----------------------------------|
|--7-7-7-7-7-7-7-7-7-7-7-7-7-7-7-7-|--8-8-8-8-8-8-8-8--5-5-5-5-5-5-5-5-|
|--5-5-5-5-5-5-5-5-5-5-5-5-5-5-5-5-|--8-8-8-8-8-8-8-8--5-5-5-5-5-5-5-5-|
|----------------------------------|--8-8-8-8-8-8-8-8--5-5-5-5-5-5-5-5-|
|
|  ~~~~~~~~~~~~~~~~~~~~~~~~~~~~~~~~~~~~~~~~~~~~~~~~~~~~~~
|  W                                  H                H
|-22-------------------------------|-20---------------17---------------|
|----------------------------------|-----------------------------------|
|----------------------------------|-----------------------------------|
|----------------------------------|-----------------------------------|
|----------------------------------|-----------------------------------|
|----------------------------------|-----------------------------------|


   S S S S S S S S S S S S S S S S    S S S S S S S S  S S S S S S S S
|----------------------------------|-----------------------------------|
|----------------------------------|-----------------------------------|
|--7-7-7-7-7-7-7-7-7-7-7-7-7-7-7-7-|-----------------------------------|
|--7-7-7-7-7-7-7-7-7-7-7-7-7-7-7-7-|--8-8-8-8-8-8-8-8--5-5-5-5-5-5-5-5-|
|--5-5-5-5-5-5-5-5-5-5-5-5-5-5-5-5-|--8-8-8-8-8-8-8-8--5-5-5-5-5-5-5-5-|
|----------------------------------|--8-8-8-8-8-8-8-8--5-5-5-5-5-5-5-5-|
|
|  ~~~~~~~~~~~~~~~~~~~~~~~~~~~~~~~~~~~~~~~~~~~~~~~~~~~~~~
|  W                                  H                H
|----------------------------------|------------------17---------------|
|-15-------------------------------|-17--------------------------------|
|----------------------------------|-----------------------------------|
|----------------------------------|-----------------------------------|
|----------------------------------|-----------------------------------|
|----------------------------------|-----------------------------------|


   S  S  S  S  S  S  S  S  S  S  S  S  S  S  S S
|------------------------------------------------|
|------------------------------------------------|
|------------------------------------------------|
|--3--3--3--3--3--3--3--3--3--3--3--3--3--3--5-5-|
|--3--3--3--3--3--3--3--3--3--3--3--3--3--3--5-5-|
|--3--3--3--3--3--3--3--3--3--3--3--3--3--3--5-5-|
|
|  ~~~~~~~~~~~~~~~~~~~~~~~~~~~~~~~~~~~
|  S  S  S  S  S  S  S  S  S  S  S  S  S  E.
|-22-22-22-22-22-22-22-22-22-22-22-22------------|
|------------------------------------------------|
|-------------------------------------10-12------|
|------------------------------------------------|
|------------------------------------------------|
|------------------------------------------------|


   S  S S S S S S S S S S S  S  S  S S
|--------------------------------------|
|--------------------------------------|
|--------------------------------------|
|--7--7-7-7-7-7-7-7-7-7-7-7--7--7--5-5-|
|--7--7-7-7-7-7-7-7-7-7-7-7--7--7--5-5-|
|--7--7-7-7-7-7-7-7-7-7-7-7--7--7--5-5-|
|
|  ~~~
|  H.                        S  E.
|--------------------------------------|
|--------------------------------------|
|-14------------------------14-12------|
|--------------------------------------|
|--------------------------------------|
|--------------------------------------|


   S  S S S S S S S S S S S  S  S  S S    S  S S S S S S S S S S S  S  S  S S
|--------------------------------------|--------------------------------------|
|--------------------------------------|--------------------------------------|
|--------------------------------------|--------------------------------------|
|--3--3-3-3-3-3-3-3-3-3-3-3--3--3--5-5-|--7--7-7-7-7-7-7-7-7-7-7-7--7--7--5-5-|
|--3--3-3-3-3-3-3-3-3-3-3-3--3--3--5-5-|--7--7-7-7-7-7-7-7-7-7-7-7--7--7--5-5-|
|--3--3-3-3-3-3-3-3-3-3-3-3--3--3--5-5-|--7--7-7-7-7-7-7-7-7-7-7-7--7--7--5-5-|
|
|  ~~~                                    ~~~
|  H.                        S  E.        H.                        S  E.
|--------------------------------------|--------------------------------------|
|--------------------------------------|--------------------------------------|
|-10------------------------10-12------|-14------------------------14-12------|
|--------------------------------------|--------------------------------------|
|--------------------------------------|--------------------------------------|
|--------------------------------------|--------------------------------------|


   S  S S S S S S S S S S S  S  S  S S    S  S S S S S S S S S S S  S  S  S S
|--------------------------------------|--------------------------------------|
|--------------------------------------|--------------------------------------|
|--------------------------------------|--------------------------------------|
|--3--3-3-3-3-3-3-3-3-3-3-3--3--3--5-5-|--7--7-7-7-7-7-7-7-7-7-7-7--7--7--5-5-|
|--3--3-3-3-3-3-3-3-3-3-3-3--3--3--5-5-|--7--7-7-7-7-7-7-7-7-7-7-7--7--7--5-5-|
|--3--3-3-3-3-3-3-3-3-3-3-3--3--3--5-5-|--7--7-7-7-7-7-7-7-7-7-7-7--7--7--5-5-|
|
|  ~~~                                    ~~~
|  H.                        S  E.        H.                        S  E.
|--------------------------------------|--------------------------------------|
|--------------------------------------|--------------------------------------|
|-10------------------------10-12------|-14------------------------14-12------|
|--------------------------------------|--------------------------------------|
|--------------------------------------|--------------------------------------|
|--------------------------------------|--------------------------------------|


   S  S S S S S S S S S S S  S  S  S S    S S S S S S S S S S S S S S S S
|--------------------------------------|----------------------------------|
|--------------------------------------|----------------------------------|
|--------------------------------------|----------------------------------|
|--3--3-3-3-3-3-3-3-3-3-3-3--3--3--5-5-|--2-2-2-2-2-2-2-2-2-2-2-2-2-2-2-2-|
|--3--3-3-3-3-3-3-3-3-3-3-3--3--3--5-5-|--2-2-2-2-2-2-2-2-2-2-2-2-2-2-2-2-|
|--3--3-3-3-3-3-3-3-3-3-3-3--3--3--5-5-|--2-2-2-2-2-2-2-2-2-2-2-2-2-2-2-2-|
|
|  ~~~                                    ~~
|  H.                        S  E.        W
|--------------------------------------|----------------------------------|
|--------------------------------------|----------------------------------|
|-10------------------------10-12------|----------------------------------|
|--------------------------------------|-14-------------------------------|
|--------------------------------------|----------------------------------|
|--------------------------------------|----------------------------------|


   S S  S  S S S S S  S  S S  S  S S  S S    S S S S S S S S  S S S S S S S S
|-----------------------------------------|-----------------------------------|
|-----------------------------------------|-----------------------------------|
|--7-7--7--7-7-7-7-7--7--7-7--7--7-7--7-7-|-----------------------------------|
|--7-7--7--7-7-7-7-7--7--7-7--7--7-7--7-7-|--8-8-8-8-8-8-8-8--5-5-5-5-5-5-5-5-|
|--5-5--5--5-5-5-5-5--5--5-5--5--5-5--5-5-|--8-8-8-8-8-8-8-8--5-5-5-5-5-5-5-5-|
|-----------------------------------------|--8-8-8-8-8-8-8-8--5-5-5-5-5-5-5-5-|
|
|       ~~~                                  ~~~~~~~~~~~~~~~~~~~
|  E    Q.            E.      E.      E      H                H
|-----------------------------------------|-----------------------------------|
|------10------------11------10-----------|-----------------------------------|
|------------------------------------12---|-10---------------12---------------|
|-12--------------------------------------|-----------------------------------|
|-----------------------------------------|-----------------------------------|
|-----------------------------------------|-----------------------------------|


   S S  S  S S S S S  S  S S  S  S S  S S    S S S S S S S S  S S S S S S S S
|-----------------------------------------|-----------------------------------|
|-----------------------------------------|-----------------------------------|
|--7-7--7--7-7-7-7-7--7--7-7--7--7-7--7-7-|-----------------------------------|
|--7-7--7--7-7-7-7-7--7--7-7--7--7-7--7-7-|--8-8-8-8-8-8-8-8--5-5-5-5-5-5-5-5-|
|--5-5--5--5-5-5-5-5--5--5-5--5--5-5--5-5-|--8-8-8-8-8-8-8-8--5-5-5-5-5-5-5-5-|
|-----------------------------------------|--8-8-8-8-8-8-8-8--5-5-5-5-5-5-5-5-|
|
|       ~~~                                  ~~~~~~~~~~~~~~~~~~~
|  E    Q.            E.      E.      E      H                H
|-----------------------------------------|-----------------------------------|
|------10------------11------10-----------|-----------------------------------|
|------------------------------------12---|-10---------------12---------------|
|-12--------------------------------------|-----------------------------------|
|-----------------------------------------|-----------------------------------|
|-----------------------------------------|-----------------------------------|


   S S  S  S S S S S  S  S S  S  S S  S S    S S S S S S S S  S S S S S S S S
|-----------------------------------------|-----------------------------------|
|-----------------------------------------|-----------------------------------|
|--7-7--7--7-7-7-7-7--7--7-7--7--7-7--7-7-|-----------------------------------|
|--7-7--7--7-7-7-7-7--7--7-7--7--7-7--7-7-|--8-8-8-8-8-8-8-8--5-5-5-5-5-5-5-5-|
|--5-5--5--5-5-5-5-5--5--5-5--5--5-5--5-5-|--8-8-8-8-8-8-8-8--5-5-5-5-5-5-5-5-|
|-----------------------------------------|--8-8-8-8-8-8-8-8--5-5-5-5-5-5-5-5-|
|
|       ~~~                                  ~~~~~~~~~~~~~~~~~~~
|  E    Q.            E.      E.      E      H                H
|-----------------------------------------|-----------------------------------|
|------10------------11------10-----------|-----------------------------------|
|------------------------------------12---|-10---------------12---------------|
|-12--------------------------------------|-----------------------------------|
|-----------------------------------------|-----------------------------------|
|-----------------------------------------|-----------------------------------|


   S S  S  S S S S S  S  S S  S  S S  S S    S S S S S S S S  S S S S S S S S
|-----------------------------------------|-----------------------------------|
|-----------------------------------------|-----------------------------------|
|--7-7--7--7-7-7-7-7--7--7-7--7--7-7--7-7-|-----------------------------------|
|--7-7--7--7-7-7-7-7--7--7-7--7--7-7--7-7-|--8-8-8-8-8-8-8-8--5-5-5-5-5-5-5-5-|
|--5-5--5--5-5-5-5-5--5--5-5--5--5-5--5-5-|--8-8-8-8-8-8-8-8--5-5-5-5-5-5-5-5-|
|-----------------------------------------|--8-8-8-8-8-8-8-8--5-5-5-5-5-5-5-5-|
|
|       ~~~                                  ~~~~~~~~~~~~~~~~~~~
|  E    Q.            E.      E.      E      H                H
|-----------------------------------------|-----------------------------------|
|------10------------11------10-----------|-----------------------------------|
|------------------------------------12---|-10---------------12---------------|
|-12--------------------------------------|-----------------------------------|
|-----------------------------------------|-----------------------------------|
|-----------------------------------------|-----------------------------------|


   S S  S  S S S S S  S  S S  S  S S  S S    S S S S S S S S  S S S S S S S S
|-----------------------------------------|-----------------------------------|
|-----------------------------------------|-----------------------------------|
|--7-7--7--7-7-7-7-7--7--7-7--7--7-7--7-7-|-----------------------------------|
|--7-7--7--7-7-7-7-7--7--7-7--7--7-7--7-7-|--8-8-8-8-8-8-8-8--5-5-5-5-5-5-5-5-|
|--5-5--5--5-5-5-5-5--5--5-5--5--5-5--5-5-|--8-8-8-8-8-8-8-8--5-5-5-5-5-5-5-5-|
|-----------------------------------------|--8-8-8-8-8-8-8-8--5-5-5-5-5-5-5-5-|
|
|       ~~~                                  ~~~~~~~~~~~~~~~~~~~
|  E    Q.            E.      E.      E      H                H
|-----------------------------------------|-----------------------------------|
|------10------------11------10-----------|-----------------------------------|
|------------------------------------12---|-10---------------12---------------|
|-12--------------------------------------|-----------------------------------|
|-----------------------------------------|-----------------------------------|
|-----------------------------------------|-----------------------------------|


   S S  S  S S S S S  S  S S  S  S S  S S    S S S S S S S S  S S S S S S S S
|-----------------------------------------|-----------------------------------|
|-----------------------------------------|-----------------------------------|
|--7-7--7--7-7-7-7-7--7--7-7--7--7-7--7-7-|-----------------------------------|
|--7-7--7--7-7-7-7-7--7--7-7--7--7-7--7-7-|--8-8-8-8-8-8-8-8--5-5-5-5-5-5-5-5-|
|--5-5--5--5-5-5-5-5--5--5-5--5--5-5--5-5-|--8-8-8-8-8-8-8-8--5-5-5-5-5-5-5-5-|
|-----------------------------------------|--8-8-8-8-8-8-8-8--5-5-5-5-5-5-5-5-|
|
|       ~~~                                  ~~~~~~~~~~~~~~~~~~~
|  E    Q.            E.      E.      E      H                H
|-----------------------------------------|-----------------------------------|
|------10------------11------10-----------|-----------------------------------|
|------------------------------------12---|-10---------------12---------------|
|-12--------------------------------------|-----------------------------------|
|-----------------------------------------|-----------------------------------|
|-----------------------------------------|-----------------------------------|


   S S  S  S S S S S  S  S S  S  S S  S S    S S S S S S S S  S S S S S S S S
|-----------------------------------------|-----------------------------------|
|-----------------------------------------|-----------------------------------|
|--7-7--7--7-7-7-7-7--7--7-7--7--7-7--7-7-|-----------------------------------|
|--7-7--7--7-7-7-7-7--7--7-7--7--7-7--7-7-|--8-8-8-8-8-8-8-8--5-5-5-5-5-5-5-5-|
|--5-5--5--5-5-5-5-5--5--5-5--5--5-5--5-5-|--8-8-8-8-8-8-8-8--5-5-5-5-5-5-5-5-|
|-----------------------------------------|--8-8-8-8-8-8-8-8--5-5-5-5-5-5-5-5-|
|
|       ~~~                                  ~~~~~~~~~~~~~~~~~~~
|  E    Q.            E.      E.      E      H                H
|-----------------------------------------|-----------------------------------|
|------10------------11------10-----------|-----------------------------------|
|------------------------------------12---|-10---------------12---------------|
|-12--------------------------------------|-----------------------------------|
|-----------------------------------------|-----------------------------------|
|-----------------------------------------|-----------------------------------|


   S S  S  S S S S S  S  S S  S  S S  S S    S S S S S S S S  S S S S S S S S
|-----------------------------------------|-----------------------------------|
|-----------------------------------------|-----------------------------------|
|--7-7--7--7-7-7-7-7--7--7-7--7--7-7--7-7-|-----------------------------------|
|--7-7--7--7-7-7-7-7--7--7-7--7--7-7--7-7-|--8-8-8-8-8-8-8-8--5-5-5-5-5-5-5-5-|
|--5-5--5--5-5-5-5-5--5--5-5--5--5-5--5-5-|--8-8-8-8-8-8-8-8--5-5-5-5-5-5-5-5-|
|-----------------------------------------|--8-8-8-8-8-8-8-8--5-5-5-5-5-5-5-5-|
|
|       ~~~                                  ~~~~~~~~~~~~~~~~~~~
|  E    Q.            E.      E.      E      H                H
|-----------------------------------------|-----------------------------------|
|------10------------11------10-----------|-----------------------------------|
|------------------------------------12---|-10---------------12---------------|
|-12--------------------------------------|-----------------------------------|
|-----------------------------------------|-----------------------------------|
|-----------------------------------------|-----------------------------------|


  Gtrs I, II
   W                      H      H       W                       H      H
|----------------------|--------------|-----------------------|--------------|
|----------------------|--------------|-----------------------|--------------|
|--7-------------------|--------------|--7--------------------|--------------|
|--7-------------------|--8------5----|--7--------------------|--8------5----|
|--5-------------------|--8------5----|--5--------------------|--8------5----|
|----------------------|--8------5----|-----------------------|--8------5----|
|
| Gtr I
|  ~~ ~~~~~~~~~~~~~~~~~~~~~~~    ~~~~~~~~~~~ ~~~~~~~~~~~~~~~~~~~~~~~    ~~
|  E  Q.    E.  E.  E     H      H       E   Q.    E.  E.  E     H      H
|----------------------|--------------|-----------------------|--------------|
|----10----11--10------|--------------|-----10----11--10------|--------------|
|------------------12--|-10-----12----|-------------------12--|-10-----12----|
|-12-------------------|--------------|-12--------------------|--------------|
|--5-------------------|-(5)----------|-(5)-------------------|-(5)----------|
|----------------------|--------------|-----------------------|--------------|
   W                     +W             +W                      +W


   W                      H      H       W                       H      H
|----------------------|--------------|-----------------------|--------------|
|----------------------|--------------|-----------------------|--------------|
|--7-------------------|--------------|--7--------------------|--------------|
|--7-------------------|--8------5----|--7--------------------|--8------5----|
|--5-------------------|--8------5----|--5--------------------|--8------5----|
|----------------------|--8------5----|-----------------------|--8------5----|
|
|  ~~ ~~~~~~~~~~~~~~~~~~~~~~~    ~~~~~~~~~~~ ~~~~~~~~~~~~~~~~~~~~~~~    ~~
|  E  Q.    E.  E.  E     H      H       E   Q.    E.  E.  E     H      H
|----------------------|--------------|-----------------------|--------------|
|----10----11--10------|--------------|-----10----11--10------|--------------|
|------------------12--|-10-----12----|-------------------12--|-10-----12----|
|-12-------------------|--------------|-12--------------------|--------------|
|--5-------------------|-(5)----------|-(5)-------------------|-(5)----------|
|----------------------|--------------|-----------------------|--------------|
   W                     +W             +W                      +W


   W                      H      H       W                       H      H
|----------------------|--------------|-----------------------|--------------|
|----------------------|--------------|-----------------------|--------------|
|--7-------------------|--------------|--7--------------------|--------------|
|--7-------------------|--8------5----|--7--------------------|--8------5----|
|--5-------------------|--8------5----|--5--------------------|--8------5----|
|----------------------|--8------5----|-----------------------|--8------5----|
|
|  ~~ ~~~~~~~~~~~~~~~~~~~~~~~    ~~~~~~~~~~~ ~~~~~~~~~~~~~~~~~~~~~~~    ~~
|  E  Q.    E.  E.  E     H      H       E   Q.    E.  E.  E     H      H
|----------------------|--------------|-----------------------|--------------|
|----10----11--10------|--------------|-----10----11--10------|--------------|
|------------------12--|-10-----12----|-------------------12--|-10-----12----|
|-12-------------------|--------------|-12--------------------|--------------|
|--5-------------------|-(5)----------|-(5)-------------------|-(5)----------|
|----------------------|--------------|-----------------------|--------------|
   W                     +W             +W                      +W


   W                      H      H       W                       H      H
|----------------------|--------------|-----------------------|--------------|
|----------------------|--------------|-----------------------|--------------|
|--7-------------------|--------------|--7--------------------|--------------|
|--7-------------------|--8------5----|--7--------------------|--8------5----|
|--5-------------------|--8------5----|--5--------------------|--8------5----|
|----------------------|--8------5----|-----------------------|--8------5----|
|
|  ~~ ~~~~~~~~~~~~~~~~~~~~~~~    ~~~~~~~~~~~ ~~~~~~~~~~~~~~~~~~~~~~~    ~~
|  E  Q.    E.  E.  E     H      H       E   Q.    E.  E.  E     H      H
|----------------------|--------------|-----------------------|--------------|
|----10----11--10------|--------------|-----10----11--10------|--------------|
|------------------12--|-10-----12----|-------------------12--|-10-----12----|
|-12-------------------|--------------|-12--------------------|--------------|
|--5-------------------|-(5)----------|-(5)-------------------|-(5)----------|
|----------------------|--------------|-----------------------|--------------|
   W                     +W             +W                      +W


  Gtr I
   ~~ ~~~~~~~~~~~~~~~~~~~~~~~    ~~~~~~~~~~~ ~~~~~~~~~~~~~~~~~~~~~~~    ~~
   E  Q.    E.  E.  E     H      H       E   Q.    E.  E.  E     H      H
|----------------------|--------------|-----------------------|--------------*|
|----10----11--10------|--------------|-----10----11--10------|--------------*|
|------------------12--|-10-----12----|-------------------12--|-10-----12----*|
|-12-------------------|--------------|-12--------------------|--------------*|
|--5-------------------|-(5)----------|-(5)-------------------|-(5)----------*|
|----------------------|--------------|-----------------------|--------------*|
   W                     +W             +W                      +W



Duration Legend
---------------
W - whole; H - half; Q - quarter; E - 8th; S - 16th; T - 32nd; X - 64th; a - acciaccatura
+ - note tied to previous; . - note dotted; .. - note double dotted
Uncapitalized letters represent notes that are staccato (1/2 duration)
Irregular groupings are notated above the duration line
Duration letters will always appear directly above the note/fret number it represents the
duration for.  Duration letters with no fret number below them represent rests.  Multi-
bar rests are notated in the form Wxn, where n is the number of bars to rest for.  Low
melody durations appear below the staff

Tablature Legend
----------------
 h   - hammer-on
 p   - pull-off
 b   - bend
 pb  - pre-bend
 r   - bend release (if no number after the r, then release immediately)
 /\  - slide into or out of (from/to "nowhere")
 s   - legato slide
 S   - shift slide
 - natural harmonic
[n]  - artificial harmonic
n(n) - tapped harmonic
 ~   - vibrato
 tr  - trill
 T   - tap
 TP  - trem. picking
 PM  - palm muting
\n/  - tremolo bar dip; n = amount to dip
 \n  - tremolo bar down
 n/  - tremolo bar up
/n\  - tremolo bar inverted dip
 =   - hold bend; also acts as connecting device for hammers/pulls
 <> - volume swell (louder/softer)
 x   - on rhythm slash represents muted slash
 o   - on rhythm slash represents single note slash

Misc Legend
-----------
 |  - bar
||  - double bar
||o - repeat start
o|| - repeat end
*|  - double bar (ending)
 :  - bar (freetime)
 $  - Segno
 &  - Coda
Tempo markers -  = BPM(8/16=s8/s16), where s8 = swing 8ths, s16 = swing 16ths

comments
We did not receive enough feedback on this tab! Please rate:
print report bad tab
1 2 3 4 5
I want to post or [tab]
guest
You may want to rate the tab now too:
select rating
Please do not post tabs as comments. Select "correction" instead!