Oops, an error
Loading. Please wait.

Spook And Destroy Tab

286 views 1 this week
no commentswrite comment
1 2 3 4 5
excellent!
x 2
add to favorites launch autoscroll
font size
0
reset
Autoscroll
+/-
esc
set tempo
stop
Contributor
Tuning
C G C F A D
WARNING: You are trying to view
                                    content from Ultimate-Guitar.com
                                    in an unauthorized application,
                                    which is prohibited.

                                    Please use an official Ultimate
                                    Guitar Tabs application for iPhone,
                                    iPad or Android to access legitimate
                                    chords, guitar, bass, and drum tabs
                                    from Ultimate-Guitar.com database.

                                    Type "ultimate guitar tabs" in Apple
                                    App Store's or Android Market's
                                    search to find the application.
The album tab is created by Living Dead 31

Tuning: CGCFAD


1. M.F.T.W


[ Intro ]

D----------------------------------------------------------------|
A----------------------------------------------------------------|
F----------------------------------------------------------------|
C--0-2-2-0-2--2-0--5-5-5-2-5-2--0-2-2-0-2--2-0--7-5-2-0-2--------|
G--0-2-2-0-2--2-0--5-5-5-2-5-2--0-2-2-0-2--2-0--7-5-2-0-2--------|
C--0-2-2-0-2--2-0--5-5-5-2-5-2--0-2-2-0-2--2-0--7-5-2-0-2--------|

[ Verse ]

D-----------------------------------------------------------------|
A-----------------------------------------------------------------|
F-----------------------------------------------------------------|
C--2----5/----5-7-5-7~-5-5----2----5/----9-9----9-9---------------|
G--2----5/----5-7-5-7~-5-5----2----5/----7-7----7-7---------------|
C--2----5/----5-7-5-7~-5-5----2----5/-----------------------------| (x2)

[ Pre-Chorus ]

D-------------------------------------------------------------|
A-------------------------------------------------------------|
F-------------------------------------------------------------|
C--7----5----2-2---2-2---2-2---2-2---2--2---7----5----4----3--|
G--7----5----2-2---2-2---2-2---2-2---2--2---7----5----4----3--|
C--7----5----2-2---2-2---2-2---2-2---2--2---7----5----4----3--|

[ Chorus ]


D----------------------------------------------------------------|
A----------------------------------------------------------------|
F----------------------------------------------------------------|
C--0-2-2-0-2--2-0--5-5-5-2-5-2--0-2-2-0-2--2-0--7-5-2-0-2--------|
G--0-2-2-0-2--2-0--5-5-5-2-5-2--0-2-2-0-2--2-0--7-5-2-0-2--------|
C--0-2-2-0-2--2-0--5-5-5-2-5-2--0-2-2-0-2--2-0--7-5-2-0-2--------| (x2)


D------------------------------------------------------------|
A------------------------------------------------------------|
F------------------------------------------------------------|
C--0-2--0-2--0-2--0-2--x-x-x-x--0-2--0-2--0-2--0-2--5--5-----|
G--0-2--0-2--0-2--0-2--x-x-x-x--0-2--0-2--0-2--0-2--5--5-----|
C--0-2--0-2--0-2--0-2--x-x-x-x--0-2--0-2--0-2--0-2--5--5-----|

D------------------------------------------------------------|
A------------------------------------------------------------|
F------------------------------------------------------------|
C--0-2--0-2--0-2--0-2--x-x-x-x--0-2--0-2--0-2--0-2--5--5-----|
G--0-2--0-2--0-2--0-2--x-x-x-x--0-2--0-2--0-2--0-2--5--5-----|
C--0-2--0-2--0-2--0-2--x-x-x-x--0-2--0-2--0-2--0-2--5--5-----|

[2:11 - 2:25]

D------------------------------------------------------------|
A------------------------------------------------------------|
F------------------------------------------------------------|
C--0-2--0-2--0-2--0-2--x-x-x-x--0-2--0-2--0-2--0-2--5--5-----|
G--0-2--0-2--0-2--0-2--x-x-x-x--0-2--0-2--0-2--0-2--5--5-----|
C--0-2--0-2--0-2--0-2--x-x-x-x--0-2--0-2--0-2--0-2--5--5-----|

D------------------------------------------------------------|
A------------------------------------------------------------|
F------------------------------------------------------------|
C--0-2--0-2--0-2--0-2--x-x-x-x--0-2--0-2--0-2--0-2--5--5-----|
G--0-2--0-2--0-2--0-2--x-x-x-x--0-2--0-2--0-2--0-2--5--5-----|
C--0-2--0-2--0-2--0-2--x-x-x-x--0-2--0-2--0-2--0-2--5--5-----|

[ Pre-Chorus]

[ Riff 2 ]

D----------------------------------------------------------------|
A----------------------------------------------------------------|
F----------------------------------------------------------------|
C--0-2-2-0-2--2-0--5-5-5-2-5-2--0-2-2-0-2--2-0--7-5-2-0-2--------|
G--0-2-2-0-2--2-0--5-5-5-2-5-2--0-2-2-0-2--2-0--7-5-2-0-2--------|
C--0-2-2-0-2--2-0--5-5-5-2-5-2--0-2-2-0-2--2-0--7-5-2-0-2--------| (x2)

[ Chorus ]

[ Outro ]

D------------------------------------------------------------|
A------------------------------------------------------------|
F------------------------------------------------------------|
C--0-2--0-2--0-2--0-2--x-x-x-x--0-2--0-2--0-2--0-2--5--5-----|
G--0-2--0-2--0-2--0-2--x-x-x-x--0-2--0-2--0-2--0-2--5--5-----|
C--0-2--0-2--0-2--0-2--x-x-x-x--0-2--0-2--0-2--0-2--5--5-----|

D------------------------------------------------------------|
A------------------------------------------------------------|
F------------------------------------------------------------|
C--0-2--0-2--0-2--0-2--x-x-x-x--0-2--0-2--0-2--0-2--5--5-----|
G--0-2--0-2--0-2--0-2--x-x-x-x--0-2--0-2--0-2--0-2--5--5-----|
C--0-2--0-2--0-2--0-2--x-x-x-x--0-2--0-2--0-2--0-2--5--5-----|


2. Halloween 13-13


[Intro]

D-----------------------------------------------------------|
A-----------------------------------------------------------|
F-----------------------------------------------------------|
C---4--4---4-4-4---4--4---4-4-4---7--7---7-7-7-6-6-6-7-6----|
G---4--4---4-4-4---4--4---4-4-4---7--7---7-7-7-6-6-6-7-6----|
C---4--4---4-4-4---4--4---4-4-4---7--7---7-7-7-6-6-6-7-6----| (x4)

[Verse]

D-----------------------------------------------------------|
A-----------------------------------------------------------|
F-----------------------------------------------------------|
C---4--4---4-4-4---4--4---4-4-4---7--7---7-7-7-6-6-6-7-6----|
G---4--4---4-4-4---4--4---4-4-4---7--7---7-7-7-6-6-6-7-6----|
C---4--4---4-4-4---4--4---4-4-4---7--7---7-7-7-6-6-6-7-6----| (x4)

    .  .   . . .   .  .   . . .   .  .   . . . . . . . .

[Pre-Chorus]

D--------------------------------------------------------------|
A--------------------------------------------------------------|
F--------------------------------------------------------------|
C--/---2--2--2-2-2--2--2--2-2-2--4--4---4-4-4---4--4--4-4-4----|
G--/---2--2--2-2-2--2--2--2-2-2--4--4---4-4-4---4--4--4-4-4----|
C--/---2--2--2-2-2--2--2--2-2-2--4--4---4-4-4---4--4--4-4-4----|

D----------------------------------------------------------|
A----------------------------------------------------------|
F----------------------------------------------------------|
C--2--2--2-2-2--2--2--2-2-2--4--4---4-4-4---4--4--4-4-4----|
G--2--2--2-2-2--2--2--2-2-2--4--4---4-4-4---4--4--4-4-4----|
C--2--2--2-2-2--2--2--2-2-2--4--4---4-4-4---4--4--4-4-4----|

D----------------------------------------------------------|
A----------------------------------------------------------|
F----------------------------------------------------------|
C--2--2--2-2-2--2--2--2-2-2--4--4---4-4-4---4--4--4-4-4----|
G--2--2--2-2-2--2--2--2-2-2--4--4---4-4-4---4--4--4-4-4----|
C--2--2--2-2-2--2--2--2-2-2--4--4---4-4-4---4--4--4-4-4----|

D----------------------------------------------------------|
A----------------------------------------------------------|
F----------------------------------------------------------|
C--7--7--7-7-7--7--7--7-7-7--6--6--6-6-6--6--6--/----------|
G--5--5--5-5-5--5--5--5-5-5--4--4--4-4-4--4--4--/----------|
C-----------------------------------------------/----------|

[Chorus]

D-----------------------------------------------------------|
A-----------------------------------------------------------|
F-----------------------------------------------------------|
C---4--4---4-4-4---4--4---4-4-4---7--7---7-7-7-6-6-6-7-6----|
G---4--4---4-4-4---4--4---4-4-4---7--7---7-7-7-6-6-6-7-6----|
C---4--4---4-4-4---4--4---4-4-4---7--7---7-7-7-6-6-6-7-6----| (x5)

[Verse] (x4)

[Pre-Chorus]

[Chorus] (x4)

[Verse] (x4)

[Pre-Chorus]

[Chorus] (x7)

[Outro]

D---------------------------------------------------------------|
A---------------------------------------------------------------|
F---------------------------------------------------------------|
C---4--4---4-4-4---4--4---4-4-4---7--7---7-7-7-6-6-6-7-6----4---|
G---4--4---4-4-4---4--4---4-4-4---7--7---7-7-7-6-6-6-7-6----4---|
C---4--4---4-4-4---4--4---4-4-4---7--7---7-7-7-6-6-6-7-6----4---|


3. Bad Things (Re-Recording 2012)


[Intro]

D-------------------------------------|
A-------------------------------------|
F-------------------------------------|
C--12/---5-5-5--0-8-8-0-5-5-3-5--5-5--|
G--12/---5-5-5--0-8-8-0-5-5-3-5--5-5--|
C--12/---5-5-5--0-8-8-0-5-5-3-5--5-5--|

D------------------------------|
A------------------------------|
F------------------------------|
C---5-5-5--0-8-8-0-5-5-3-5-----|
G---5-5-5--0-8-8-0-5-5-3-5-----|
C---5-5-5--0-8-8-0-5-5-3-5-----|

[Verse]

D--------------------------------|
A--------------------------------|
F--------------------------------|
C---5-5-5--0-8-8-0-5-5-3-5--5-5--|
G---5-5-5--0-8-8-0-5-5-3-5--5-5--|
C---5-5-5--0-8-8-0-5-5-3-5--5-5--| (x8)


[Pre-Chorus]

(Guitar 1)

D------------------------|
A------------------------|
F------------------------|
C--8-----7-----6-----6/--|
G--8-----7-----6-----6/--|
C--8-----7-----6-----6/--|

(Guitar 2)

D---------------------------|
A----11----10-----9-----9/--|
F---------------------------|
C---------------------------|
G---------------------------|
C---------------------------|

[Chorus]

D--------------------------------|
A--------------------------------|
F--------------------------------|
C---5-5-5--0-8-8-0-5-5-3-5--5-5--|
G---5-5-5--0-8-8-0-5-5-3-5--5-5--|
C---5-5-5--0-8-8-0-5-5-3-5--5-5--| (x4)

[Verse]
[Chorus]

[Verse 2 -  2:07]

D--------------------------------|
A--------------------------------|
F--------------------------------|
C---5-5-5--0-8-8-0-5-5-3-5--5-5--|
G---5-5-5--0-8-8-0-5-5-3-5--5-5--|
C---5-5-5--0-8-8-0-5-5-3-5--5-5--| (x4)

D-----------------------------|
A-----------------------------|
F-----------------------------|
C--8-----7-----6-----6-----/--|
G--8-----7-----6-----6-----/--|
C--8-----7-----6-----6-----/--|

D--------------------------------|
A--------------------------------|
F--------------------------------|
C---5-5-5--0-8-8-0-5-5-3-5--5-5--|
G---5-5-5--0-8-8-0-5-5-3-5--5-5--|
C---5-5-5--0-8-8-0-5-5-3-5--5-5--|

D-------------------------------------|
A-------------------------------------|
F-------------------------------------|
C--12/---5-5-5--0-8-8-0-5-5-3-5--5-5--|
G--12/---5-5-5--0-8-8-0-5-5-3-5--5-5--|
C--12/---5-5-5--0-8-8-0-5-5-3-5--5-5--|


4. Rambo (Re-Recording 2012)

[Intro]

D------------------------------|
A------------------------------|
F------------------------------|
C--11--------4-------6---------|
G--11--------4-------6---------|
C--11-(x16)--4-(x8)--6-(x8)----| (x4)

D-----------------|
A-----------------|
F-----------------|
C--11---4---6-----|
G--11---4---6-----|
C--11---4---6-----|

[Chorus]

R.A.M.B.O Blow em...

D------------------------------|
A------------------------------|
F------------------------------|
C--11--------4-------6---------|
G--11--------4-------6---------|
C--11-(x16)--4-(x8)--6-(x8)----|

[Verse]

He is a...

D------------------------------|
A------------------------------|
F------------------------------|
C--11--------4-------6---------|
G--11--------4-------6---------|
C--11-(x16)--4-(x8)--6-(x8)----|


5. Mister Motherfucker (Re-Recording 2012)


[ Intro/Verse ]

D----------------------|
A----------------------|
F----------------------|
C---7--7--7--7--7--7-7-|
G---7--7--7--7--7--7-7-|
C---7--7--7--7--7--7-7-|

[ Pre-Chorus ]

D------------------------------------------------|
A------------------------------------------------|
F------------------------------------------------|
C---7----------7--7--7--7--5/7--7--7--7--7--5/7--|
G---5---(x16)--7--7--7--7--5/7--7--7--7--7--5/7--|
C--------------7--7--7--7--5/7--7--7--7--7--5/7--|

D-----------------------------------|
A-----------------------------------|
F-----------------------------------|
C---7-----------9-------------------|
G---5---(x16)---7--(x16)------------|
C-----------------------------------|

[ Chorus ]

D------------------------------------------------|
A------------------------------------------------|
F------------------------------------------------|
C----7--7--7--7--5/7----------7--7--7--7--10/7---|
G----7--7--7--7--5/7---(x6)---7--7--7--7--10/7---|
C----7--7--7--7--5/7----------7--7--7--7--10/7---|

[ Under the solo ]

D--------------------------------------------|
A--------------------------------------------|
F--------------------------------------------|
C----7--7--7--7--5/7------7--7--7--7--10/7---|
G----7--7--7--7--5/7------7--7--7--7--10/7---|
C----7--7--7--7--5/7------7--7--7--7--10/7---| (x4)


6. Curse of Me (Acoustic)


[Verse]

D---------------------------------------|
A---------------------------------------|
F---------------------------------------|
C--6--6-6-6--6-6-6---9--9-9-9--9-9-9----|
G--6--6-6-6--6-6-6---9--9-9-9--9-9-9----|
C--6--6-6-6--6-6-6---9--9-9-9--9-9-9----|

D---------------------------------------|
A---------------------------------------|
F---------------------------------------|
C--4--4-4-4--4-4-4---2--2-2-2--2-2-2----|
G--4--4-4-4--4-4-4---2--2-2-2--2-2-2----|
C--4--4-4-4--4-4-4---2--2-2-2--2-2-2----| (x6)

[Pre-Chorus]

D---------------------------------------|
A---------------------------------------|
F---------------------------------------|
C--2--2-2-2--2-2-2--2--2-2-2--2-2-2-----|
G--2--2-2-2--2-2-2--2--2-2-2--2-2-2-----|
C--2--2-2-2--2-2-2--2--2-2-2--2-2-2-----|

D---------------------------------------|
A---------------------------------------|
F---------------------------------------|
C--6--6-6-6--6-6-6---6--6-6-6--6-6-6----|
G--6--6-6-6--6-6-6---6--6-6-6--6-6-6----|
C--6--6-6-6--6-6-6---6--6-6-6--6-6-6----|

D---------------------------------------|
A---------------------------------------|
F---------------------------------------|
C--2--2-2-2--2-2-2--2--2-2-2--2-2-2-----|
G--2--2-2-2--2-2-2--2--2-2-2--2-2-2-----|
C--2--2-2-2--2-2-2--2--2-2-2--2-2-2-----|

D---------------------------------------|
A---------------------------------------|
F---------------------------------------|
C--1--1-1-1--1-1-1--1--1-1-1--1-1-1-----|
G--1--1-1-1--1-1-1--1--1-1-1--1-1-1-----|
C--1--1-1-1--1-1-1--1--1-1-1--1-1-1-----|

[Chorus]

D---------------------------------------|
A---------------------------------------|
F---------------------------------------|
C--6--6-6-6--6-6-6---9--9-9-9--9-9-9----|
G--6--6-6-6--6-6-6---9--9-9-9--9-9-9----|
C--6--6-6-6--6-6-6---9--9-9-9--9-9-9----|

D---------------------------------------|
A---------------------------------------|
F---------------------------------------|
C--4--4-4-4--4-4-4---2--2-2-2--2-2-2----|
G--4--4-4-4--4-4-4---2--2-2-2--2-2-2----|
C--4--4-4-4--4-4-4---2--2-2-2--2-2-2----|

[Verse] (x4)
[Pre-Chorus]
[Chorus]

[Verse 2]

D---------------------------------------|
A---------------------------------------|
F---------------------------------------|
C--6--6-6-6-6-6-6-6--9--9-9-9-9-9-9-9---|
G--6--6-6-6-6-6-6-6--9--9-9-9-9-9-9-9---|
C--6--6-6-6-6-6-6-6--9--9-9-9-9-9-9-9---|
   .  . . . . . . .  .  . . . . . . .

D---------------------------------------|
A---------------------------------------|
F---------------------------------------|
C--4--4-4-4-4-4-4-4--2--2-2-2-2-2-2-2---|
G--4--4-4-4-4-4-4-4--2--2-2-2-2-2-2-2---|
C--4--4-4-4-4-4-4-4--2--2-2-2-2-2-2-2---|
   .  . . . . . . .  .  . . . . . . .

D---------------------------------------|
A---------------------------------------|
F---------------------------------------|
C--6--6-6-6-6-6-6-6--9--9-9-9-9-9-9-9---|
G--6--6-6-6-6-6-6-6--9--9-9-9-9-9-9-9---|
C--6--6-6-6-6-6-6-6--9--9-9-9-9-9-9-9---|
   .  . . . . . . .  .  . . . . . . .

D-----------------------------|
A-----------------------------|
F-----------------------------|
C--4--4-4-4-4-4-4-4---2-------|
G--4--4-4-4-4-4-4-4---2-------|
C--4--4-4-4-4-4-4-4---2-------|
   .  . . . . . . .

[Chorus]
[Outro]

D------------------------------------------------------|
A------------------------------------------------------|
F------------------------------------------------------|
C---6-----9-----4-----2-----6-----9-----4-----2-----6--|
G---6-----9-----4-----2-----6-----9-----4-----2-----6--|
C---6-----9-----4-----2-----6-----9-----4-----2-----6--|






_____________________________________

/  -slide up
.  -Palm mute
_____________________________________
comments
We did not receive enough feedback on this tab! Please rate:
1 2 3 4 5
I want to post or [tab]
guest
You may want to rate the tab now too:
select rating
Please do not post tabs as comments. Select "correction" instead!