Oops, an error
Loading. Please wait.

Transylvania 90210 Songs Of Death Dying And The Dead Tab

2,467 views 3 this week
3 commentsread comments
1 2 3 4 5
excellent!
x 5
add to favorites launch autoscroll
font size
0
reset
Autoscroll
+/-
esc
set tempo
stop
Contributor
Difficulty
intermediate
WARNING: You are trying to view
                                    content from Ultimate-Guitar.com
                                    in an unauthorized application,
                                    which is prohibited.

                                    Please use an official Ultimate
                                    Guitar Tabs application for iPhone,
                                    iPad or Android to access legitimate
                                    chords, guitar, bass, and drum tabs
                                    from Ultimate-Guitar.com database.

                                    Type "ultimate guitar tabs" in Apple
                                    App Store's or Android Market's
                                    search to find the application.
I always wanted to learn the songs to this cd, so i put them all together!

1.Post Mortem Boredom 

Intro Synth 
D|-2--2--2--2--| 
A|-------------| 
F|-------------| 
C|-------------| 
G|-------------| 
C|-------------| 

Piano 
D|-------------| 
A|-------------| 
F|-------------| 
C|-------------| 
G|-------------| 
C|-0--1--4--3--|

2.Look What The Bats Dragged In

Intro/Verse 
D|------------------------------| 
A|------------------------------| 
F|------------------------------| 
C|------------------------------| 
G|-0-0-0--0-0-0--0-0-0-0--0-1-3-| 
C|-0-0-0--0-0-0--0-0-0-0--0-1-3-| 
PM----------------------| 

Intro/Verse/Chorus/Solo 
D|-------------------------------| 
A|-------------------------------| 
F|-------------------------------| 
C|-------------------------------| 
G|-0-0-0-0-6-5--0-5-4--4-3-0-1-3-| 
C|-0-0-0-0-6-5--0-5-4--4-3-0-1-3-| 
PM--------| |-| 

Prechorus 
D|--------------------|------------------------| 
A|--------------------|------------------------| 
F|--------------------|------------------------| 
C|--------------------|---------------------7--| 
G|-0-0-0-0-3-0--0-----|-0-0-0--0-0-0--0-0-0-5--| 
C|-0-0-0-0-3-0--0-(x3)|-0-0-0--0-0-0--0-0-0----| 
PM|-------| |-------------------| 

Solo 
D|-22p20p17-(x8)-22p20-22//-------------------------| 
A|--------------------------0-----------------------| 
F|-----------------------------15[16]^-----17[18]^--| 
C|--------------------------------------------------| 
G|--------------------------------------------------| 
C|--------------------------------------------------| 

Solo pt.2 
D|----------------------------------------------------------------| 
A|----------------------------------------------------------------| 
F|----------------------------------------------------------------| 
C|-10^-10^(10r^)-8-10^(10)-8-10-8--------------------10^(10r^)----| 
G|------------------------------10--10/12-12-10-12-------------10-| 
C|----------------------------------------------------------------| 

Solo pt.2 (cont.) 
D|------------------------------------------------------------------------| 
A|-13^-13^(13r^)-11-13^(13r^)-11-13-11--------------------------------15~-| 
F|-------------------------------------12-12[13]-13[14]-14[15]-15[16]-----| 
C|------------------------------------------------------------------------| 
G|------------------------------------------------------------------------| 
C|------------------------------------------------------------------------| 

Solo pt.2(rhythm) 
D|---------------|----------| 
A|---------------|----------| 
F|---------------|----------| 
C|---------------|----------| 
G|-5------3------|-6--------| 
C|-5-(x8)-3-(x8)-|-6-(x16)--| 

Outro 
D|-----------------------| 
A|-----------------------| 
F|-----------------------| 
C|-----------------------| 
G|-0-0-0--0-0-0--0-0-0-0-| 
C|-0-0-0--0-0-0--0-0-0-0-| 
PM|---------------------|

3.I Walked With A Zombie

Intro/Pre-Verse 2/Pre-Solo 
D|-------------------------------| 
A|-------------------------------| 
F|-------------------------------| 
C|-------------------------------| 
G|-0-0-4-0--------5-5-5-5--------| 
C|-0-0-4-0--------5-5-5-5--------| 
PM|----------------------| 

Intro/Verse/PreVerse 2 
D|-------------------------------| 
A|-------------------------------| 
F|-------------------------------| 
C|-0-0-4-0-0(x12)-5(x12)-7-7-5-5-| 
G|-------------------------------| 
C|-------------------------------| 
PM|-----------------------------| 

Intro/Pre-Verse 2 pt.2 
D|---------------------------------------| 
A|---------------------------------------| 
F|---------------------------------------| 
C|---------------7-----------------------| 
G|-0-0-4-0---0-0-5(x8)-5-----7-----5-----| 
C|-0-0-4-0---0-0-------5(x8)-7(x4)-5(x4)-| 
PM|-------| 
D|---------------------------------------| 
A|---------------------------------------| 
F|---------------------------------------| 
C|-0-0-4-0-0(x12)------5(x8)-7(x4)-5(x4)-| 
G|---------------------------------------| 
C|---------------------------------------| 
PM|-------------------------------------| 

Chorus 
D|--------------------------------| 
A|--------------------------------| 
F|--------------------------------| 
C|--------------------------------| 
G|-0-0-4-0--0------5------7-7-5-5-| 
C|-0-0-4-0--0(x11)-5(x12)-7-7-5-5-| 

D|----------------------------------------| 
A|-7------7-----7--8------8--10---8---7---| 
F|----7------7--------7-------------------| 
C|----------------------------------------| 
G|----------------------------------------| 
C|----------------------------------------| 

Verse 1st 1/2 
D|-----------------|----------------------| 
A|-----------------|----------------------| 
F|-----------------|----------------------| 
C|-----------------|----------------------| 
G|-0-0-4-0---0-0-0-|-0-----5------7-7-5-5-| 
C|-0-0-4-0---0-0-0-|-0(x8)-5(x12)-7-7-5-5-| 
SPM--------------------------------------| 

Verse 2nd 1/2 
D|-----------------|----------------------| 
A|-----------------|----------------------| 
F|-----------------|----------------------| 
C|-----------------|----------------------| 
G|-0-0-4-0---0-0-0-|-0-----5------7-7-5-5-| 
C|-0-0-4-0---0-0-0-|-0(x8)-5(x12)-7-7-5-5-| 

Prechorus 
D|---------------------------------------|-------------------------| 
A|---------------------------------------|-------------------------| 
F|---------------------------------------|------PM|---------------|| 
C|---------------------------------------|-------------------------| 
G|--7--7-7--5--5-5--0--4-00-4-00-4-00-4--|-7--7-7------------------| 
C|--7--7-7--5--5-5--0--4-00-4-00-4-00-4--|-7--7-7--5-5-5-5-5-5-5-5-| 

Solo 
D|----------------12--12--12--12--------12------12-\-| 
A|----12~--10~----15^-15^-15^-15^-15~---15^(x6)-15^\-| 
F|---------------------------------------------------| 
C|---------------------------------------------------| 
G|-<-------------------------------------------------| 
C|-<-------------------------------------------------| 

Solo(rhythm) 
D|----------------------------| 
A|----------------------------| 
F|----------------------------| 
C|----------------------------| 
G|-5------7------5------7-----| 
C|-5(x16)-7(x16)-5(x16)-7(x9)-| 

Last Chorus(lead change) 
D|-14--------14-----14-15------15-17--15-14--| 
A|-----15-------15---------15----------------| 
F|-------------------------------------------| 
C|-------------------------------------------| 
G|-------------------------------------------| 
C|-------------------------------------------| 

Outro 
D|--------------------| 
A|--------------------| 
F|--------------------| 
C|--------------------| 
G|--7-----5-----0-----| 
C|--7-----5-----0-----| 

D|-17~---15~----------| 
A|-------------15~----| 
F|--------------------| 
C|--------------------| 
G|--------------------| 
C|--------------------|

4. Bad Things

Intro/Verse/Chorus/Solo 
D|------|------------------------------| 
A|------|------------------------------| 
F|------|------------------------------| 
C|------|------------------------------| 
G|--12\-|-5-5-5--0-8-8-0-5-5-3-5--5-5--| 
C|--12\-|-5-5-5--0-8-8-0-5-5-3-5--5-5--| 
| |Chorus Gtr.2 | 
D|------|----------6-6-----------------| 
A|------|-8-8-8----------8-8-6-8--8-8--| 
F|------|--------7-----7---------------| 
C|------|------------------------------| 
G|------|------------------------------| 
C|------|------------------------------| 

Prechorus 
D|-----------------------| 
A|-----------------------| 
F|-----------------------| 
C|--8-----7-----6-----6\-| 
G|--8-----7-----6-----6\-| 
C|--8-----7-----6-----6\-| 
| | 
D|-----------------------| 
A|-11~---10~----9~----9\-| 
F|-----------------------| 
C|-----------------------| 
G|-----------------------| 
C|-----------------------| 


Pre-Verse 2(Interlude) 
D|----------------------|----------15p13--------------| 
A|----------------------|--13^(x7)-------15p13--------| 
F|----------------------|----------------------12---0-| 
C|-10^(x4)-10^(10)-8----|-----------------------------| 
G|-------------------10-|-----------------------------| 
C|----------------------|-----------------------------| 

D|-------------------------------------------------| 
A|-------------------------------------------------| 
F|-10-12-12-12-12-12-10-12-12-12-12-12-10-12-12-12-| 
C|-------------------------------------------------| 
G|-------------------------------------------------| 
C|-------------------------------------------------| 

D|-------------------------------------15p13-------------| 
A|-----------------------------13^(x7)-------15p13-------| 
F|-10-12-12-12-12-12AH~---12\----------------------12\---| 
C|-------------------------------------------------------| 
G|-------------------------------------------------------| 
C|-------------------------------------------------------|

5. House By The Cemetary

Verse:

D----------------|
A----------------|
F----------------|
C----------------|
G--0-3-0---------|
C--0-3-0—--|

Post Verse:

D--------------------------------|
A--------------------------------|
F--------------------------------|
C--------------------------------|
G--00-3-0-0-3-00-3-0-0-5---------|
C--00-3-0-0-3-00-3-0-0-5—--|


Pre-chorus:

D---------------------|
A---------------------|
F---------------------|
C---------------------|
G--0-3-6-3-5-3-5-3-0--|
C--0-3-6-3-5-3-5-3-0--|


Chorus:

D----------------------------|
A----------------------------|
F----------------------------|
C----------------------------|
G--0-3-5-3-6-3-5-3-0---------|
C--0-3-5-3-6-3-5-3-0—--|

Riff After Pre-Chorus (2nd time only)

D-----------------|
A-----------------|
F-----------------|
C-----------------|
G—-6-5-3-0--|
C--6-5-3-0--------

6. God Is A Lie 

Intro/Intro pt.2/Verse pt.1/Solo pt.1 
E|-------------------------| 
B|-------------------------| 
G|-------------------------| 
D|-------------------------| 
A|-------------------------| 
D|-5(x8)-1(x8)-8(x8)-3(x8)-| 
PM|-------------------| 

Intro pt.2 
E|-------------------------| 
B|-------------------------| 
G|-------------------------| 
D|-------------------------| 
A|-5-----1-----8-----3-----| 
D|-5-----1-----8-----3-----| 

Intro pt.2/Verse pt.2(gtr.2) 
E|-------------6~----------| 
B|-8~----------------6~----| 
G|-------8~----------------| 
D|-------------------------| 
A|-------------------------| 
D|-------------------------| 

Chorus pt.1/Verse pt.2/Solo pt.2 
E|-------------------------| 
B|-------------------------| 
G|-------------------------| 
D|-------------------------| 
A|-5-----1-----8-----3-----| 
D|-5(x8)-1(x8)-8(x8)-3(x8)-| 

Chorus pt.1(gtr.2) 
E|-------------------------|-------| 
B|-------------------------|-------| 
G|-12---10-12----15---14---|-12----| 
D|-------------------------|-------| 
A|-------------------------|-------| 
D|-------------------------|-------| 

Pre-Chorus pt.1 
E|-----------------------------------| 
B|-----------------------------------| 
G|-----------------------------------| 
D|-----------------------------------| 
A|-5---5---5-5---1-1-----8-----3-----| 
D|-5---5---5-5---1-1(x8)-8(x8)-3(x8)-| 

E|-----------------------6~----------| 
B|-8---8---8-8-----------------6~----| 
G|---------------8~------------------| 
D|-----------------------------------| 
A|-----------------------------------| 
D|-----------------------------------| 

Pre-Chorus pt.2 
E|------------------------------------| 
B|------------------------------------| 
G|------------------------------------| 
D|--------------------x-x-x--x-x-x--x-| 
A|-1------3-----0-----x-x-x--x-x-x--x-| 
D|-1(x12)-3(x3)-0(x9)-x-x-x--x-x-x--x-| 

E|------------------------------------| 
B|--------6---------------------------| 
G|-8------------7---------------------| 
D|--------------------x-x-x--x-x-x--x-| 
A|--------------------x-x-x--x-x-x--x-| 
D|--------------------x-x-x--x-x-x--x-| 

Chorus pt.2|Outro 
E|------------------------|------| 
B|------------------------|------| 
G|------------------------|------| 
D|------------------------|-5\---| 
A|-5-5-0-5---0-5--0-5--0--|-5\---| 
D|-5-5-0-5---0-5--0-5--0--|-5\---| 

E|-3-3---3-----3----3-----|-3\---| 
B|-----4-----4----4----4--|------| 
G|------------------------|------| 
D|------------------------|------| 
A|------------------------|------| 
D|------------------------|------| 

Solo pt.1 
E|--------------------------------------------------| 
B|-15---------------15--------15------18------------| 
G|-17^---17^--17^---17^---17^-17^--------17--15-14--| 
D|--------------------------------------------------| 
A|--------------------------------------------------| 
D|--------------------------------------------------| 

Solo pt.1(cont.) 
E|----------------------------------------| 
B|----------------------------------------| 
G|-12~---12/15-15~---15/17-17~---17/19~---| 
D|----------------------------------------| 
A|----------------------------------------| 
D|----------------------------------------| 


Solo pt.2 
E|--15//--------18-20-20^-------20^--20^---20-18---| 
B|-------------------------------------------------| 
G|-------------------------------------------------| 
D|-------------------------------------------------| 
A|-------------------------------------------------| 
D|-------------------------------------------------| 

Solo pt.2(cont.) 
E|-------------------------------18-17--15---| 
B|-20----20-18----18-15------15--------------| 
G|-------------------------------------------| 
D|-------------------------------------------| 
A|-------------------------------------------| 
D|-------------------------------------------|

7. Haunt Me

Intro 
E|-----------| 
B|-----------| 
G|-----------| 
D|-6-6--5-5--| 
A|-4-4--3-3--| 
D|-----------| 

Verse---Intro pt.2/Verse/Chorus/Solo/Outro 
E|-----|-----------------------------| 
B|-----|-----------------------------| 
G|-----|-----------------------------| 
D|-----|-----------------------------| 
A|-11\-|-3--3--3-3-3-3-6--6-5--5-5-5-| 
D|-11\-|-3--3--3-3-3-3-6--6-5--5-5-5-| 

(gtr.2) Intro pt.2/Chorus/Outro 
E|-----|-----------------------------| 
B|-----|-6-----6-------6----6--6-----| 
G|-----|----5------5------5------5---| 
D|-----|-----------------------------| 
A|-----|-----------------------------| 
D|-----|-----------------------------| 
(gtr.2 w/vibrato effects) 

(cont.) 
E|---------------|---------------|-------------| 
B|---------------|---------------|-------------| 
G|---------------|---------------|-------------| 
D|---------------|-6--6-5--5-5-5-|-6-6---5-5---| 
A|-3--3--3-3-3-3-|-4--4-3--3-3-3-|-4-4---3-3---| 
D|-3--3--3-3-3-3-|---------------|-------------| 

E|---------------|---------------|-------------| 
B|-6-----6-------|-6----6--6-----|-6-----6-----| 
G|----5------5---|----5------5---|---5-----5---| 
D|---------------|---------------|-------------| 
A|---------------|---------------|-------------| 
D|---------------|---------------|-------------| 

Verse(synth) 
E|-4--3--1-(1)-(1)-(1)--| 
B|----------------------| 
G|----------------------| 
D|----------------------| 
A|----------------------| 
D|----------------------| 

Pre-Chorus 
E|-------------------------------------|-------------| 
B|-------------------------------------|-------------| 
G|-------------------------------------|-------------| 
D|-------------------------------------|-6-6---5-5---| 
A|-1-----3-----1-----3-----1-----3-----|-4-4---3-3---| 
D|-1-----3-----1-----3-----1-----3-----|-------------| 

E|-------------------------------------|-------------| 
B|-------6~----------6~----------6~----|-------------| 
G|-8~----------8~----------8~----------|-------------| 
D|-------------------------------------|-6-6---5-5---| 
A|-------------------------------------|-4-4---3-3---| 
D|-------------------------------------|-------------| 

Solo(w/vibrato effects) 
E|-13---------------------------------------| 
B|----13-11-13-14-13-11-9-11-9--------------| 
G|-----------------------------10--10-13-12-| 
D|------------------------------------------| 
A|------------------------------------------| 
D|------------------------------------------| 

Solo(cont.) 
E|-----------------------------------------------| 
B|-13-11-13-14-13-11-9-11-9----------------------| 
G|--------------------------10--10-13-13--12-12--| 
D|-----------------------------------------------| 
A|-----------------------------------------------| 
D|-----------------------------------------------|

8. Transylvania 90210

Intro/Verse/Outro 
D|---------------------------------|---------------------------------| 
A|---------------------------------|---------------------------------| 
F|-----12------9-------9-------9---|-----12------7-------7-------7---| 
C|---12------9---9---9---9---9---9-|---12------7---7---7---7---7---7-| 
G|-10-----7--------7-------7-------|-10-----5--------5-------5-------| 
C|---------------------------------|---------------------------------| 
| | | 
D|---------------------------------|---------------------------------| 
A|---------------------------------|---------------------------------| 
F|---------------------------------|---------------------------------| 
C|---------------------------------|---------------------------------| 
G|-5------2------------------------|-5------0------------------------| 
C|-5------2------------------------|-5------0------------------------| 
| 
D|---------------------------------|---------------------------------| 
A|-20~----17~----------------------|-20~-----------------------------| 
F|---------------------------------|--------19~----------------------| 
C|---------------------------------|---------------------------------| 
G|---------------------------------|---------------------------------| 
C|---------------------------------|---------------------------------| 

Chorus 
D|---------------------------------|---------------------------------| 
A|---------------------------------|---------------------------------| 
F|-----5-------5-------5-------5---|-----2-------2-------2-------2---| 
C|---5---5---5---5---5---5---5---5-|---2---2---2---2---2---2---2---2-| 
G|-3-------3-------3-------3-------|-0-------0-------0-------0-------| 
C|---------------------------------|---------------------------------| 
| | | 
D|---------------------------------|---------------------------------| 
A|---------------------------------|---------------------------------| 
F|---------------------------------|---------------------------------| 
C|-5-------------------------------|-2-------------------------------| 
G|-3-------------------------------|-0-------------------------------| 
C|---------------------------------|---------------------------------| 
| | | 
D|-20~-----------------------------|-17~-----------------------------| 
A|---------------------------------|---------------------------------| 
F|---------------------------------|---------------------------------| 
C|---------------------------------|---------------------------------| 
G|---------------------------------|---------------------------------| 
C|---------------------------------|---------------------------------| 

Chorus(cont.) 
D|---------------------------| 
A|---------------------------| 
F|-----5-------5-------7-----| 
C|---5---5---5---5---7---7---| 
G|-3-------3-------5-------5-| 
C|---------------------------| 
| | 
D|---------------------------| 
A|---------------------------| 
F|---------------------------| 
C|-5---------------7---------| 
G|-3---------------5---------| 
C|---------------------------| 
| | 
D|-20~-------------22~-------| 
A|---------------------------| 
F|---------------------------| 
C|---------------------------| 
G|---------------------------| 
C|---------------------------| 

Interlude/Outro 
D|-0-2-3-2-0--------0-2-3-5-3-2h3p2-|-0-2-3-5-3-2---1-| 
A|-----------3h5p3------------------|-----------------| 
F|----------------------------------|-----------------| 
C|----------------------------------|-----------------| 
G|----------------------------------|-----------------| 
C|----------------------------------|-----------------| 

Outro 
D|-0-2-3-2-0-----------| 
A|-----------3h5p3-5---| 
F|---------------------| 
C|---------------------| 
G|---------------------| 
C|---------------------| 
| | 
D|---------------------| 
A|-----------------17~-| 
F|---------------------| 
C|---------------------| 
G|---------------------| 
C|---------------------|

9. I Want You...Dead

Intro:

D----------------------------|
A----------------------------|
F----------------------------|
C----------------------------|
G--0-5-5-0-5-5-0-5-5--0-5-5--|
C----------------------------|

Pre-Verse:

D----------------------------------------------------------------------|
A----------------------------------------------------------------------|
F----------------------------------------------------------------------|
C----------------------------------------------------------------------|
G--0-5-5-0-5-5-0-5-5--0-5-5-0-5-5-5-0-5-5-0-5-5-0-5-5-0-5-5-5-5-8-8-8~-|
C----------------------------------------------------------------------|

Riff 3(palm mute open strings)

D-----------------------------------|
A-----------------------------------|
F-----------------------------------|
G------10-------2-----10----7-----5-|
C------8-------10-----8-----5-----3-|
C--000----000-----000----00----00---|


Chorus:(palm mute open chords)

D--------------------------------------------------------------------------|
A--------------------------------------------------------------------------|
F--------------------------------------------------------------------------|
C-33-333-333-333-77-777-777-777-33-333-333-333----7----7-----7---7---------|
G—11-111-111-111-55-555-555-555-11-111-111-111----5----5-----5---5---|
C----------------------------------------------00---00---00---00-----------|

Cont.

D--------------------------------------------------------------------|
A--------------------------------------------------------------------|
F--------------------------------------------------------------------|
C-33-333-333-333-77-777-777-777--55-555-555-555-33-333-55-555--------|
G—11-111-111-111-55-555-555-555--33-333-333-333-11-111-33-333--|
C--------------------------------------------------------------------|

End:

D------------------------------------------------------------------|
A------------------------------------------------------------------|
F------------------------------------------------------------------|
C------------------------------------------------------------------|
G--0-5-5-0-5-5-0-5-5--0-5-5-0-5-5-5-0-5-5-0-5-5-0-5-5-0-5-5-5-5-8~-|
C------------------------------------------------------------------|

D-------------|
A-------------|
F-------------|
C-101010--7~--|
G--8-8-8--5~--|
C-------------|

10. Buried By Christmas

Intro/Chorus/Interlude 
E|---------------------------------| 
B|---------------------------------| 
G|--7^---7-5-----------------------| 
D|-----------7-5-7-5-7^(7)-5-7--7--| 
A|---------------------------------| 
E|---------------------------------| 

Intro/Chorus/Interlude 
E|-10^--10-8-----------------------------|-10^--10-8---------------| 
B|-----------10-8-10-8-10^(10)-8-10--10--|-----------10-8-10-8-10\-| 
G|---------------------------------------|-------------------------| 
D|---------------------------------------|-------------------------| 
A|---------------------------------------|-------------------------| 
E|---------------------------------------|-------------------------| 

E|---------------------------------------|-------------------------| 
B|---------------------------------------|-------------------------| 
G|--7^---7-5-----------------------------|--7^---7-5---------------| 
D|------------7-5--7-5--7^(7)--5--7---7--|------------7-5--7-5--7\-| 
A|---------------------------------------|-------------------------| 
E|---------------------------------------|-------------------------| 

Intro/Chorus|Outro 
E|---------------------|-------| 
B|---------------------|-------| 
G|---------------------|-------| 
D|---------------------|-------| 
A|-7--7------5--5------|-7\----| 
E|-5--5(x14)-3--3(x14)-|-5\----| 

Verse 
E|----------------------------------------------------| 
B|----------------------------------------------------| 
G|----------------------------------------------------| 
D|----------------------------------------------------| 
A|-7\---7\---5\---5\---5-5-7\---7\---5\---<---5-------| 
E|-5\---5\---3\---3\---3-3-5\---5\---3\---<---3-------| 

E|----------------------------------------------------| 
B|----------------------------------------------------| 
G|----------------------------------------------------| 
D|-7\---7\---5\---5\---5-5-7\---7\---5\-------5-------| 
A|----------------------------------------<-----------| 
E|----------------------------------------<-----------| 

Solo 
E|-----------------17---17-15---15-------------------| 
B|-----------------------------------17---17-15~-15~-| 
G|-14~(x7)---14--------------------------------------| 
D|---------------------------------------------------| 
A|---------------------------------------------------| 
E|---------------------------------------------------| 

Solo(cont.) 
E|-17--17-15-17-17-15-17-17-15-17-17-17-15-17-17-| 
B|-----------------------------------------------| 
G|-----------------------------------------------| 
D|-----------------------------------------------| 
A|-----------------------------------------------| 
E|-----------------------------------------------| 

Solo(cont.) 
E|-17--17-15-17-17-15-17-17-15-17-17-17-17-17-17-| 
B|-----------------------------------------------| 
G|-----------------------------------------------| 
D|-----------------------------------------------| 
A|-----------------------------------------------| 
E|-----------------------------------------------| 

Solo(cont.) 
E|-18p17p15---------|-18p17p15---17g^------| 
B|---------18p17p15-|----------------------| 
G|------------------|----------------------| 
D|------------------|----------------------| 
A|------------------|----------------------| 
E|-------------(x7)-|----------------------| 

Outro 
E|-15--17(x11)-15-17-17-15--17-17-17-15-17-17-17-15-17-17-17-15-17-17-| 
B|--------------------------------------------------------------------| 
G|--------------------------------------------------------------------| 
D|--------------------------------------------------------------------| 
A|--------------------------------------------------------------------| 
E|--------------------------------------------------------------------| 

Outro(cont.) 
E|-17-----17-15-----15-----------------------| 
B|---------------------17~----17-15~-15---15-| 
G|-------------------------------------------| 
D|-------------------------------------------| 
A|-------------------------------------------| 
E|-------------------------------------------| 

Outro(cont.) // // x7 
E|----------15-17---|-15-17-17--|-17\---| 
B|------------------|-----------|-------| 
G|------------------|-----------|-------| 
D|------------------|-----------|-------| 
A|------------------|-----------|-------| 
E|------------------|-----------|-------|

11. Elect Death For President

Verse/Chorus 
E|--------|-------------------------|---------------------------| 
B|--------|-------------------------|---------------------------| 
G|--------|-------------------------|---------------------------| 
D|--------|-------------------------|---x-x--x-x-------xx-xx----| 
A|-<--13\-|-2-22--6-66--5-55--4-44--|-2-x-x--x-x--2-2--xx-xx-6\-| 
D|-<--13\-|-2-22--6-66--5-55--4-44--|-2-x-x--x-x--2-2--xx-xx-6\-| 

Prechorus 
E|-------------------------| 
B|-------------------------| 
G|-------------------------| 
D|-------------------8-----| 
A|-3-----2-----1-----6(x8)-| 
D|-3(x8)-2(x8)-1(x8)-------| 

E|------------------10[11]-| 
B|-------------------------| 
G|-10----9-----8-----------| 
D|-------------------------| 
A|-------------------------| 
D|-------------------------| 

Chorus/Outro 
E|-------------------------|-----------------------------| 
B|-------------------------|-----------------------------| 
G|-------------------------|-----------------------------| 
D|-------------------------|---x-x--x-x-------xx-xx------| 
A|-2-22--6-66--5-55--4-44--|-2-x-x--x-x--2-2--xx-xx-6\-2-| 
D|-2-22--6-66--5-55--4-44--|-2-x-x--x-x--2-2--xx-xx-6\-2-| 

E|-------------------------|-----------------------------| 
B|-------------------------|-----------------------------| 
G|-9-----13----12----11----|-9\----------9-9\------------| 
D|-------------------------|-----------------------------| 
A|-------------------------|-----------------------------| 
D|-------------------------|-----------------------------| 
hold until verse^ 
Sax 
E|-------------------------------------------------------------------| 
B|-------------------------------------------------------------------| 
G|-8h9p8-8h9p8-12h13p12-12h13p12-11h12p11-11h12p11-10h11p10-10h11p10-| 
D|-------------------------------------------------------------------| 
A|-------------------------------------------------------------------| 
D|-------------------------------------------------------------------| 
|Sax In Background | 
E|-12~---------------------------------------------------------------| 
B|-------------------------------------------------------------------| 
G|-------------------------------------------------------------------| 
D|-------------------------------------------------------------------| 
A|-------------------------------------------------------------------| 
D|-------------------------------------------------------------------| 

Last Prechorus(Sax) 
E|-------------------------------10[11]-| 
B|--------------------------------------| 
G|-10----10-12---9----9-12---8----------| 
D|--------------------------------------| 
A|--------------------------------------| 
D|--------------------------------------|

12. Rot For Me

Intro Synth 
D|----------------------------------------------| 
A|----------------------------------------------| 
F|----------------------------------------------| 
C|----------------------------------------------| 
G|----------------------------------------------| 
C|-2----3--2----5--2----3--2----5--2----3--2----| 

Intro/Verse/Pre-Solo pt.2/Outro 
D|-------------------------------|-------------------------------| 
A|-------------------------------|-------------------------------| 
F|-------------------------------|-------------------------------| 
C|-------------------------------|-------------------------------| 
G|-------------------------------|-------------------------------| 
C|-2-2-2-0-2--0-2--0-2-2-2-3-3-3-|-2-2-2-0-2--0-2--0-2-2-2-5-5-5-| 
PM|-------------------------------------------------------------| 

Intro/Pre-Solo pt.2/Outro(cont.) 
D|-------------------------------|------------------| 
A|-------------------------------|------------------| 
F|-------------------------------|------------------| 
C|-------------------------------|------------------| 
G|-------------------------------|------------------| 
C|-2-2-2-0-2--0-2--0-2-2-2-3-3-3-|-2-2-2-0-2--0-2---| 
PM|----------------------------------------------| 

Intro pt.2/Verse/Chorus/Solo 
D|------------------------------|------------------------------| 
A|------------------------------|------------------------------| 
F|------------------------------|------------------------------| 
C|------------------------------|------------------------------| 
G|-2-2-2-0-2--0-2--0-2-2-2-3-3--|-2-2-2-0-2--0-2--0-2-2-2-5-5--| 
C|-2-2-2-0-2--0-2--0-2-2-2-3-3--|-2-2-2-0-2--0-2--0-2-2-2-5-5--| 
| | 
D|------------------------------|------------------------------| 
A|------------------------------|------------------------------| 
F|-9-9-9-7-9--7-9--7-9-9-9-10-10|-9-9-9-7-9--7-9--7-9-9-9-12-12| 
C|------------------------------|------------------------------| 
G|------------------------------|------------------------------| 
C|------------------------------|------------------------------| 

Prechorus 
D|-------------------------------------------| 
A|-------------------------------------------| 
F|-------------------------------------------| 
C|-------------------------------------------| 
G|-2-2-2-0-2--0-2-------2-2-2-0-2--0-2-------| 
C|-2-2-2-0-2--0-2-------2-2-2-0-2--0-2-------|x2 

D|-------------------------------------------| 
A|-------------------------------------------| 
F|-9-9-9-7-9--7-9-------9-9-9-7-9--7-9-------| 
C|-------------------------------------------| 
G|-------------------------------------------| 
C|-------------------------------------------| 

Pre-Solo pt.1 
D|----------------------------------------------| 
A|----------------------------------------------| 
F|----------------------------------------------| 
C|----------------------------------------------| 
G|-2-----3-2-----5-2-----3-2-----5-2-----3-2----| 
C|-2-----3-2-----5-2-----3-2-----5-2-----3-2----| 

Solo 
D|---10//g^------10^----10^----10^---10^---10^-10^--10^--| 
A|-------------------------------------------------------| 
F|-------------------------------------------------------| 
C|-------------------------------------------------------| 
G|-------------------------------------------------------| 
C|-------------------------------------------------------| 

Solo(cont.) 
D|-15p14p12(x12)-15^-15-12~---| 
A|----------------------------| 
F|----------------------------| 
C|----------------------------| 
G|----------------------------| 
C|----------------------------| 

Solo(cont.) 
D|-15-15-14-14-12-12-10--12-10--12-10--10-|(x3) 
A|----------------------------------------| 
F|----------------------------------------| 
C|----------------------------------------| 
G|----------------------------------------| 
C|----------------------------------------| 

Solo(cont.) 
D|-15-15-14-14-12-12-10---12g^---| 
A|-------------------------------| 
F|-------------------------------| 
C|-------------------------------| 
G|-------------------------------| 
C|-------------------------------|

13. The Ghost Of Vincent Price

Keyboard Intro/Gtr. 2

Eb--------------------------|
Bb--------------------------|
Gb—-6~-9-8-6----------------|
Db-----------7~-------------|
Ab--------------9~----------|
Db--------------------------|

Intro Gtr. 1

Eb-------------------------|
Bb-------------------------|
Gb-------------------------|
Db---6~--------------------|
Ab—--4~--7~--4~------------|
Db-------7~--4~------------|

Verse/Chorus (palm-mute for verse)

Eb---------------------------------------|
Bb---------------------------------------|
Gb---------------------------------------|
Db--66-666-666-666-----------------------|
Ab--44-444-444-444-77-777-44-444---------|
Db-----------------77-777-44-444—--------|

Pre-Chorus(play 3x)

Eb--------------------------------------------|
Bb--------------------------------------------|
Gb--------------------------------------------|
Db--------------------------------------------|
Ab-2~--2--4—6~--6--4-2~-----------------------|
Db—2~--2--4—6~--6--4—2~-----------------------|

On the 4th time play this:

Eb-------------------|
Bb-------------------|
Gb-------------------|
Db-------------------|
Ab-2~-1~-------------|
Db—2~-1~-------------|

Solo:
e|---------------------15--16-13--20--18--15---------15-20-|
B|13--15-16-13---16-15------------------------13--15-------|
G|---------------------------------------------------------|
D|---------------------------------------------------------|
A|---------------------------------------------------------|
E|---------------------------------------------------------|

14. A Bullet Named Christ

e|----------------|
b|--11-11-9-7-9---|
g|----------------|  x8
d|----------------|
a|----------------  
e|----------------|


e|----------------------------------------------|
b|--11-11-9-11----11-9-12---12-11-9---9-11------|
g|----------------------------------------------|  x4
d|----------------------------------------------|
a|----------------------------------------------|
e|----------------------------------------------|


e|----------------|
b|--11-11-9-7-9---|
g|----------------|  x4
d|----------------|
a|----------------|
e|----------------|


e|----------------------------------------------|
b|--11-11-9-11----11-9-12---12-11-9----9-11-----|
g|----------------------------------------------|  x4
d|----------------------------------------------|
a|----------------------------------------------|
e|----------------------------------------------|


     ( bass horn)

e|----------------|
b|----------------|
g|----------------|
d|----------------|   x5  ( each note carries out for a while)
a|----------------|
e|--6-5-4-3-------|

e|----------------|
b|--11-11-9-7-9---|
g|----------------|   goes on till end of the song
d|----------------|
a|----------------|
e|----------------|

*Bonus Track*
15. Thank You Satan

Intro/Verse/Chorus/Solo/Outro 
D|-------------------------------| 
A|-------------------------------| 
F|-------------------------------| 
C|-------------------------------| 
G|-0-----2-----5-----4-----7-----| 
C|-0(x6)-2(x6)-5(x6)-4(x3)-7(x3)-| 

D|-------------------------------| 
A|-------------------------------| 
F|-------------------------------| 
C|-------------------------------| 
G|-0-----2-----5-----4-----2-----| 
C|-0(x6)-2(x6)-5(x6)-4(x3)-2(x3)-| 

For the first half of the verse 
there is a palm mute, but it's only 
a slight palm mute. The part after 
the Solo is a heavier palm mute. 

For the Outro and Solo, end on: 
D|---------------------| 
A|---------------------| 
F|---------------------| 
C|---------------------| 
G|-0-------------------| 
C|-0-------------------| 

Pre-Chorus 
D|---------------------------------------------| 
A|---------------------------------------------| 
F|---------------------------------------------| 
C|---------------------------------------------| 
G|-2----5----5-4-0-----2-0-----2----5----7-----| 
C|-2----5----5-4-0-----2-0-----2----5----7-----| 

Solo 
D|-------------------------------------------| 
A|-15-15-14-14-12-12-14-14-15-15-14-14-12-14-| 
F|-------------------------------------------| 
C|-------------------------------------------| 
G|-------------------------------------------| 
C|-------------------------------------------| 

D|----------------------------------------------| 
A|-15-15-14-14-12-12-14-14-15-15-14-14-17-17-17-| 
F|----------------------------------------------| 
C|----------------------------------------------| 
G|----------------------------------------------| 
C|----------------------------------------------| 

End on: 
D|-----------| 
A|-15~-------| 
F|-----------| 
C|-----------| 
G|-----------| 
C|-----------| 

Guitar 2 
D|-22-22-21-21-19-19-21-21-22-22-21-21-19-21-| 
A|-------------------------------------------| 
F|-------------------------------------------| 
C|-------------------------------------------| 
G|-------------------------------------------| 
C|-------------------------------------------| 

D|-22-22-21-21-19-19-21-21-22-22-21-21-24-24-24-| 
A|----------------------------------------------| 
F|----------------------------------------------| 
C|----------------------------------------------| 
G|----------------------------------------------| 
C|----------------------------------------------| 

End on: 
D|-22~-------| 
A|-----------| 
F|-----------| 
C|-----------| 
G|-----------| 
C|-----------| 

If you don't have enough frets, 
use an octaver or don't tune all the 
strings down and play it 2 frets down.

There you go all you ghouls and ghoul scouts, the entire transylvania 90210 album tabbed iut for you.
comments
print report bad tab
3 comments total.
0 reply
Iowa wrote on July 5 2007, 12:48 pm

hey whoever said this was five stars, thanks a lot

+1 reply
wednesday13dk wrote on July 22 2007, 11:25 am

It was me. Its all right with out buried by christmas. Wednesday play always in C drop. :D

0 reply
x-a7x-manson-x wrote on May 7 2008, 02:34 am

i agree with wednesday13dk he does play in c drop

I want to post or [tab]
guest
You may want to rate the tab now too:
select rating
Please do not post tabs as comments. Select "correction" instead!