Oops, an error
Loading. Please wait.

Back To The Shack Tab

ver1
ver1

Whole song

More versions @911Tabs.com
8,738 views 354 this week
4 commentsread comments
1 2 3 4 5
not so good
x 2
Autoscroll
+/-
esc
set tempo
stop
Contributor
Hey! There's an official Ultimate Guitar app which is ideal
for learning songs when you're away from computer. Get the app
WARNING: You are trying to view
                                    content from Ultimate-Guitar.com
                                    in an unauthorized application,
                                    which is prohibited.

                                    Please use an official Ultimate
                                    Guitar Tabs application for iPhone,
                                    iPad or Android to access legitimate
                                    chords, guitar, bass, and drum tabs
                                    from Ultimate-Guitar.com database.

                                    Type "ultimate guitar tabs" in Apple
                                    App Store's or Android Market's
                                    search to find the application.
#----------------------------------PLEASE NOTE--------------------------------#
#This file is the author's own work and represents their interpretation of the#
#song. You may only use this file for private study, scholarship, or research.#
#-----------------------------------------------------------------------------#
#-- File created with Instab - http://www.pconline.com/~smcarey/instab.html --#
#-----------------------------------------------------------------------------#

Author/Artist: Weezer
Title: Back To The Shack

h hammer on
p pull off
\ slide down
m mute
u up stroke

Strum at the 22nd fret.


Tuning (c# A D G B E), Down ~ 10%, (c#, D) Down ~ 20%
Live 1/2 Step Down (eb ab db gb bb eb), Down ~ 10%
Key: (C + G#)



----|-------------------------------------------------|--|
----|-------------------------------------------------|--|
----|-------------------------------------------------|--|
----|-------------------------------------------------|--|
----|--------11h13p11--13--11-----------11h13p11--11--|--|
----|-5--7-\--------------------5--7-\----------------|--|
      u                u        u                 u  

  Intro G1  



----|------------------------------------|--|
----|------------------------------------|--|
----|------------------------------------|--|
----|------------------------------18-\--|--|
----|-----------------------19/21--------|--|
----|------------------------------------|--|


  Intro G2





----|---------|--|
----|---------|--|
----|---------|--|
----|---------|--|
----|-----6-\-|--|
----|-5---7-\-|--|
      u

  Verse





----|-----------------|--|
----|-----------------|--|
----|-----------------|--|
----|-----------------|--|
----|-6-6-6-6-4-4-4-4-|--|
----|-7-7-7---5-5-5-2-|--|
                                                                         

  Chorus




----|-------------------------|--|----------------------|
----|-------------------------|--|----------------------|
----|-------------------------|--|----------------------|
----|-------------------------|2x|----------------------|
----|-6-\--13h15p13-11-9-11-9-|--|-4--6--3--8--1--------|
----|-7-\---------------------|--|----------------------|


  Bridge                          







----|-----------------------------------14------14-----14-|
----|----------------9------7---7--7-13-----13-----13-----|
----|-----10--10v----10---5---5---------------------------|
----|-----10--10v-----------------------------------------|
----|-----11--11v-----------------------------------------|
----|-7\--------------------------------------------------|
          u m u      u

  Solo  
                                                                  



----|----11----10-----9-----8-----7-----6-----5-----4-|
----|-11----10-----9-----8-----7-----6-----5-----4----|
----|-------------------------------------------------|
----|-------------------------------------------------|
----|-------------------------------------------------|
----|-------------------------------------------------|
                                                                              





----|--------------------------------------------------|
----|--------------------------------------------------|
----|--------------------------------------------------|
----|--------------------------------------------------|
----|--------------------------------------------------|
-7--|-7-7h9p7---9---7---5----7---7-7h9p7---7---5----7--|
 

  G1                                                                          



----|-------|---|
----|-------|---|
----|-------|---|
----|----18-|14x|
----|-18----|---|
----|-------|---|


  G2    m  m                                                                  




----|-------------------------------------------------------------------|
----|-------------------------21----------------------------------------|
----|-20----------------------------------------------20----------------|
----|----18----18----18----18----18----18----18----18----18----18----18-|
----|-------18----18----18----------18----18----18----------18----18----|
----|-------------------------------------------------------------------|
              


                    
                                           

----|----11----10---9----8----7---6-|
----|-11----10----9---8----7----6---|
----|-------------------------------|
----|-------------------------------|
----|-------------------------------|
----|-------------------------------|
                                                                              





comments
We did not receive enough feedback on this tab! Please rate:
print report bad tab
1 2 3 4 5
4 comments total. Showing first comments.
-1 reply
Chopgood1 wrote on July 24 2014, 03:19 am

So almost there with there with the high bit after the power chords, it goes:
e|-------------------|
B|-------------------|
G|--3h4p3-1--3-1-----|
D|-------------------|
A|-------------------|
E|-------------------|

0 reply
Paulppaul wrote on July 24 2014, 10:30 am, edited at 10:40 am

Doesn't sound like it to me but sounds good either way.

0 reply
snazmaster wrote on August 4 2014, 11:54 am

Lack of accuracy.

I want to post or [tab]
guest
You may want to rate the tab now too:
select rating
Please do not post tabs as comments. Select "correction" instead!