Oops, an error
Loading. Please wait.

De Stijl Tab

43,035 views 42 this week
4 commentsread comments
1 2 3 4 5
accurate
x 10
add to favorites launch autoscroll
font size
0
reset
Autoscroll
+/-
esc
set tempo
stop
Contributor
WARNING: You are trying to view
                                    content from Ultimate-Guitar.com
                                    in an unauthorized application,
                                    which is prohibited.

                                    Please use an official Ultimate
                                    Guitar Tabs application for iPhone,
                                    iPad or Android to access legitimate
                                    chords, guitar, bass, and drum tabs
                                    from Ultimate-Guitar.com database.

                                    Type "ultimate guitar tabs" in Apple
                                    App Store's or Android Market's
                                    search to find the application.
1.you're pretty good looking
2.hello operater
3.little bird
4.apple blossom
5.im bound to back it up
6.death letter
7.sister,do you know my name
8.truth dosen't make a nosie
9.a boy best friend
10.let build a home
11.Jumble, Jumble
12.why can you be nicer
13.your southen can be mine

number 1


 Intro:

----------------------------------------------------|
----------------------------------------------------|
--4-4------4-4-2-4-4-4-2/4-4-4-4---4-4-4---------4--|
--4-4--4-4-4-4-2-4-4-4-2/4-4-4-4-4-4-4-4-4-4-4-2-4--|
--2-2--0-0-2-2-2-2-2-2-2-2-2-2-2-0-2-2-2-4-4-4-2-2--|
-----------------------------------------2-2-2------|

Play twice with first ending after each, then once with second ending:

--------------------------------------------------------------------------|
--------------------------------------------------------------------------|
-4-4-2/4-4-4-------------4-4-2/4-4-4--4-4-2/4-4-4--4-4-2/4-4-4------------|
-4-4-2/4-4-4--2-2-4-4-4--4-4-2/4-4-4--4-4-2/4-4-4--4-4-2/4-4-4--2-2-4-4-4-|
-2-2-2-2-2-2--2-2-4-4-4--2-2-2-2-2-2--2-2-2-2-2-2--2-2-2-2-2-2--2-2-4-4-4-|
--------------0-0-2-2-2-----------------------------------------0-0-2-2-2-|

First ending:

----------------|
----------------|
----------------|
--4-4--2-2-2--4-|
--2-2--2-2-2--4-|
-------0-0-0--2-|

Second Ending:

----------------|
----------------|
--4-4-------2-4-|
--4-4-4-4-4-2-4-|
--2-2-4-4-4-2-2-|
------2-2-2-----|

Bridge:

-----------------------------------------|
-----------------------------------------|
--4-3-4-5-6-7-8--8-8-8-8-8-8-8-8-8-8-8-8-|
--4-3-4-5-6-7-8--8-8-8-8-8-8-8-8-8-8-8-8-|
-----------------6-6-6-6-6-6-6-6-6-6-6-6-|
-----------------------------------------|


------------------------------------------------------------------|
------------------------------------------------------------------|
------------------------------------------------------------------|
----------------------------------6-6-6-6-6-6-6-6-6-6-6-6-6-6-6-6-|
-6-6-6-6-6-6-6-6-6-6-6-6-6-6-6-6--4-4-4-4-4-4-4-4-4-4-4-4-4-4-4-4-|
-4-4-4-4-4-4-4-4-4-4-4-4-4-4-4-4----------------------------------|


---------------------|
---------------------|
---------------------|
-2-2-2-2-2-2-2-2--4--|
-2-2-2-2-2-2-2-2--4--|
-0-0-0-0-0-0-0-0--2--|

Back to...


---------------------------------------------------------------------------|
---------------------------------------------------------------------------|
--4-4-2/4-4-4-------------4-4-2/4-4-4--4-4-2/4-4-4--4-4-2/4-4-4------------|
--4-4-2/4-4-4--2-2-4-4-4--4-4-2/4-4-4--4-4-2/4-4-4--4-4-2/4-4-4--2-2-4-4-4-|
--2-2-2-2-2-2--2-2-4-4-4--2-2-2-2-2-2--2-2-2-2-2-2--2-2-2-2-2-2--2-2-4-4-4-|
---------------0-0-2-2-2-----------------------------------------0-0-2-2-2-|

with first ending:

----------------|
----------------|
----------------|
--4-4--2-2-2--4-|
--2-2--2-2-2--4-|
-------0-0-0--2-|

And again to:

---------------------------------------------------------------------------|
---------------------------------------------------------------------------|
--4-4-2/4-4-4-------------4-4-2/4-4-4--4-4-2/4-4-4--4-4-2/4-4-4------------|
--4-4-2/4-4-4--2-2-4-4-4--4-4-2/4-4-4--4-4-2/4-4-4--4-4-2/4-4-4--2-2-4-4-4-|
--2-2-2-2-2-2--2-2-4-4-4--2-2-2-2-2-2--2-2-2-2-2-2--2-2-2-2-2-2--2-2-4-4-4-|
---------------0-0-2-2-2-----------------------------------------0-0-2-2-2-|

And end with:

---------------------|
---------------------|
--4-4-------4--4-4-4-|
--4-4-4-4-4-4--4-4-4-|
--2-2-4-4-4-2--2-2-2-|
------2-2-2----------|


number 2


Guitar 1" plays rhythm and occasional lead. "Guitar 2" plays lead through the right
channel.

INTRO:

Guitar 1:

F#5

RIFF 1:
e|-----------------------------------------------------|
B|-5b7-b7-b7-b7-7b5--b7-b7-b6-b7-6b7-b7-b7-b7-7b6-3h4--|
G|-----------------------------------------------------|
D|-----------------------------------------------------|
A|-----------------------------------------------------|
E|-----------------------------------------------------|

   B5            F#5       B5            F#5
e|------------------------------------------------|
B|------------------------------------------------|
G|-4-----------------------4----------------------|
D|-4-------------4---------4-------------4--------|
A|-2-------------4---------2-------------4--------|
E|---------------2-----------------------2--------|

Guitar 2: Over Guitar 1
      RIFF 2        RIFF 3    RIFF 2        RIFF 4
e|------------------------------------------5-----|
B|----5b6-5p3-----------------5b6-5p3---------5b--|
G|------------4-----5b7b5-------------4-----------|
D|------------------------------------------------|
A|------------------------------------------------|
E|------------------------------------------------|

VERSE 1:
B5             F#5
Hello operator
                             B5
Can you give me number nine?
                     RIFF 2 F#5
Can I see you later?
                               B5
Will you give me back my dime?
                   RIFF 3 F#5
Turn the oscillator
                            B5
Twist it with a dollar bill
                         F#5
Mail man bring the paper
                           B5
Leave it on my window sill


BREAK 1: Riffs played by Guitar 2, chords by Guitar 1 (tabbed to be accessible for one guitar)

   D5   A5   B5       D5   A5   E5        D5   A5   B5             A5   Ab5  F#5
e|----------------------------------5--------------------------------------------------------|
B|---------------5b6------------------5b----------------5b6-5-5p3----------------3-4-5-5b6b5-|
G|-7-7----------------7-7-------9-9-------7-7---------------------4--------------------------|
D|-7-7--7-7--9-9------7-7--7-7--9-9-------7-7--7-7--9-9------------7-7--6-6--4-4-------------|
A|-5-5--7-7--9-9------5-5--7-7--7-7-------5-5--7-7--9-9------------7-7--6-6--4-4-------------|
E|------5-5--7-7-----------5-5-----------------5-5--7-7------------5-5--4-4--2-2-------------|

   D5   A5   B5      D5   A5   E5          D5   A5   B5       E5   F#5    F5
e|---------------5b6-------------------------------------7/0------------------|
B|---------------------------------5b-5-3-------------------------------------|
G|-7-7---------------7-7-------9-9---------7-7----------------9-9--10-10--11--|
D|-7-7--7-7--9-9-----7-7--7-7--9-9---------7-7--7-7--9-9------9-9--10-10--11--|
A|-5-5--7-7--9-9-----5-5--7-7--7-7---------5-5--7-7--9-9------7-7--8--8---9---|
E|------5-5--7-7----------5-5-------------------5-5--7-7----------------------|

RIFF 1 (Guitar 1)

   B5            F#5         B5         F#5
e|----------------------------------5--------------------------|
B|----5b6-5p3--------5b6-(p3)----5b---5-----5b-5b-5b6-5-5p3----|
G|-4----------4---------------4-----------------------------4--|
D|-4-------------4------------4----------4---------------------|
A|-2-------------4------------2----------4---------------------|
E|---------------2-----------------------2---------------------|

VERSE 2:
Find a canary
A bird to bring my message home
Carry my obituary

e|-------------|
B|-5b6b5-(p3)--|
G|-------------|
D|-------------|
A|-------------|
E|-------------|

My coffin doesn't have a phone
How you gonna get the money?

E|-------|
B|-5-b6--|
G|-------|
D|-------|
A|-------|
E|-------|

Send papers to an empty home
How you gonna get the money?
Nobody to answer the phone

BREAK 2:
D5 A5 B5  D5 A5 E5  D5 A5 B5  A5 Ab5 F#5  D5 A5 B5  D5 A5 E5  D5 A5 B5  E5 F#5 F5

GUITAR 1:
e|-----------------------------------------------|
B|-6-5--6-5-6-5-6--5b6-b6--b6-b6-b6-b6-6b5--3-4--|
G|-----------------------------------------------|
D|-----------------------------------------------|
A|-----------------------------------------------|
E|-----------------------------------------------|

FADE OUT:
   B5         F#5     B5      F#5                 B5
e|---------------------------------------------------|
B|---------5b--------------------------5b6-5p3-------|
G|-4--x-x--------x-x--4--x-x-----x--x----------4--4--|
D|-4--x-x-----4--x-x--4--x-x--4--x--x-------------4--|
A|-2--x-x-----4--x-x--2--x-x--4--x--x-------------2--|
E|------------2---------------2----------------------|

  -----------------------------------

number 3

Open G Tuning
D G D G B D

  ----------------------------------
 | Tab Definitions:			 |
 |  G: x000xx (with slide)		 |
 | Bb: x333xx (with slide)		 |
 |  C: x555xx (with slide)		 |
 |  A: x222xx (with slide)		 |
 |  F: xxxx22 				 |
 |  D: x777xx (with slide)		 |
 |F10: x|10|10|10|x|x (with slide)	 |
 |G12: x|12|12|12|x|x (with slide)	 |
 |B15: x|15|15|15|x|x (with slide)	 |
 |A14: x|14|14|14|x|x (with slide)	 |
 |  p: Pull off of note 		 |
 |  /: Slide to note        		 |
 |  <: Increasing tempo             |
  ----------------------------------

  -----------------------------------------
 | Riff Definitions:				|
 | RIFF 1: P.M.					|
 | G  Bb   C    Bb   Bb  A  G  F   		|
D|-----------------------------3--3-3--		|
B|-----------------------------3--3-3--		|
G|-0--3p0--5p0--3p0--3-/-2--0----------		|
D|-0--3p0--5p0--3p0--3-/-2--0----------		|
G|-0--3p0--5p0--3p0--3-/-2--0----------		|
D|-------------------------------------		|
 | RIFF 2:                          		|
D|--------------------				|
B|--------------------				|
G|-0-3-0-3/5-3-3/2-0--				|
D|--------------------				|
G|--------------------				|
D|--------------------				|
 | RIFF 3:					|
D|--------------------				|
B|--------------------				|
G|-0-3-0-3/5-5-3/2-0--				|
D|--------------------				|
G|--------------------				|
D|--------------------				|
 | RIFF 4:					|
D|--------------               -------------|
B|--------------               -------------|
G|-0-0-0-5/3-0--               -------------|
D|-0-0-0-5/3-0--               -------------|
G|-0-0-0-5/3-0--               -------------|
D|--------------               -------------|
  ------------------------------------------|

INTRO:
Alright,

RIFF 1: Played 4x

VERSE 1: (Chords represent RIFF 1)
G B5 C B5 B5 A   G     F
               I got a little bird
G B5 C B5 B5 A     G     F
	       I'm gonna take her home
G B5 C B5 B5 A   G       F
	         Put her in a cage
G B5 C B5 B5 A     G     F
	       And disconnect the phone

BREAK 1:
D|-----------------------------------------------------------3--3--3-3----------------------------3--3-3-|
B|-----------------------5-----------------------------------3--3--3-3----------------------------3--3-3-|
G|-0--3p0--5p0--3p0-/5-5---5-5-5/3-0--7-10-7-5-0--5-3-7-3--0------------0--3p0--5p0--3p0--3/2--0---------|
D|-0--3p0--5p0--3p0-/5-5-------5/3-0--7-10-7-5-0--5-3-7-3--0------------0--3p0--5p0--3p0--3/2--0---------|
G|-0--3p0--5p0--3p0-/5-5-------5/3-0--7-10-7-5-0--5-3-7-3--0------------0--3p0--5p0--3p0--3/2--0---------|
D|-------------------------------------------------------------------------------------------------------|
                                    Yeah!

D|--------------------------------------------------------------------------------------------------------|
B|--------------------------------------------------------------------------------------------------------|
G|-3/5-0-3/2-0--0-3/2-0-3/5-0-3/2-0-3/2-0-3/2-0--3/2-0-3/5-0-3/2-0-3/2-0--3/5-5/3-3/2-0-3/2-0-3/2-0-3/5-0-|
D|-3/5-0-3/2-0--0-3/2-0-3/5-0-3/2-0-3/2-0-3/2-0--3/2-0-3/5-0-3/2-0-3/2-0--3/5-5/3-3/2-0-3/2-0-3/2-0-3/5-0-|
G|-3/5-0-3/2-0--0-3/2-0-3/5-0-3/2-0-3/2-0-3/2-0--3/2-0-3/5-0-3/2-0-3/2-0--3/5-5/3-3/2-0-3/2-0-3/2-0-3/5-0-|
D|--------------------------------------------------------------------------------------------------------|

D|--------------------------------------------------------------------------------3--3--3-3--|
B|-------------------------------------------5------------------------------------3--3--3-3--|
G|-3/2-0--3/5-0-3/2-0-3/5-0-3/2-0-5/3-0--5-5---5-5-5/3-0--7-10-7-5-0--5-3-7-3--0-------------|
D|-3/2-0--3/5-0-3/2-0-3/5-0-3/2-0-5/3-0--5-5-------5/3-0--7-10-7-5-0--5-3-7-3--0-------------|
G|-3/2-0--3/5-0-3/2-0-3/5-0-3/2-0-5/3-0--5-5-------5/3-0--7-10-7-5-0--5-3-7-3--0-------------|
D|-------------------------------------------------------------------------------------------|

RIFF 1

VERSE 2:
If you give me a look
I'm gonna get the book
RIFF 2
I'm gonna preach the word
RIFF 3
I wanna preach to birds
RIFF 1
As I walk the floor
RIFF 1
Yeah, this I know

BREAK 2:
D|-------------------------5---------------------------------3--3--3-3--------------------------------|
B|---------------------------5-------------------------------3--3--3-3--------------------------------|
G|-0--3p0--5p0--3p0-/5-5-5-----5/3-0--7-10-7-5-0--5-3-7-3--0------------0--3p0--5p0--3-3--3/2-0-3/2-0-|
D|-0--3p0--5p0--3p0-/5-5-------5/3-0--7-10-7-5-0--5-3-7-3--0------------0--3p0--5p0--3-3--3/2-0-3/2-0-|
G|-0--3p0--5p0--3p0-/5-5-------5/3-0--7-10-7-5-0--5-3-7-3--0------------0--3p0--5p0--3-3--3/2-0-3/2-0-|
D|----------------------------------------------------------------------------------------------------|

D|------------------------------------------------------------------------------------------------|
B|------------------------------------------------------------------------------------------------|
G|-3-0--3/2-0--3/2-0-3/2-0--3/5-0-3/2-0--3/2-0-3/2-0--3-3-0-3/2-0-0-3/2-0-0-3/5-0-3/2-0-3-3/2-0-0-|
D|-3-0--3/2-0--3/2-0-3/2-0--3/5-0-3/2-0--3/2-0-3/2-0--3-3-0-3/2-0-0-3/2-0-0-3/5-0-3/2-0-3-3/2-0-0-|
G|-3-0--3/2-0--3/2-0-3/2-0--3/5-0-3/2-0--3/2-0-3/2-0--3-3-0-3/2-0-0-3/2-0-0-3/5-0-3/2-0-3-3/2-0-0-|
D|------------------------------------------------------------------------------------------------|

D|------5------------------------------------|
B|--------5----------------------------------|
G|-/5-5-----5-5/3-0--7-10-7-5-0--5-3-7-3--0--|
D|-/5-5-----5-5/3-0--7-10-7-5-0--5-3-7-3--0--|
G|-/5-5-----5-5/3-0--7-10-7-5-0--5-3-7-3--0--|
D|-------------------------------------------|


Played 2x:
<
F10/G12  F10  Bb15  A14  F10

<
F10/G12  F10  Bb  C

D|-------------------------3--3--3-3--|
B|-------------------------3--3--3-3--|
G|-7-10-7-5-0--5-3-7-3--0-------------|
D|-7-10-7-5-0--5-3-7-3--0-------------|
G|-7-10-7-5-0--5-3-7-3--0-------------|
D|------------------------------------|

RIFF 1: Played 3x

VERSE 3:
When I get you home
RIFF 4
This is how it goes
RIFF 4
I got nothing to lose
RIFF 4
I'll never let you go

BREAK 3:
D|-0-3-0-------5------------------------------------|
B|---------------5----------------------------------|
G|--------/5-5-----5-5/3-0--7-10-7-5-0--5-3-7-3--0--|
D|--------/5-5-------5/3-0--7-10-7-5-0--5-3-7-3--0--|
G|--------/5-5-------5/3-0--7-10-7-5-0--5-3-7-3--0--|
D|--------------------------------------------------|

D|-5-5--5-3-2-0------------0---------|
B|--------------3-3-3/5-6--0---------|
G|-------------------------0---------|
D|-------------------------0---------|
G|-------------------------0---------|
D|-----------------------------------|
 ------------------------------------|
 | Little Bird			    |
 | Words and Music by Jack White     |
 | Tabbed by Patrick Ferris          |
  -----------------------------------

 Open G Tuning
 D G D G B D

   -----------------------------------
  | Tab Definitions:			 |
  |  G: x000xx (with slide)		 |
  | Bb: x333xx (with slide)		 |
  |  C: x555xx (with slide)		 |
  |  A: x222xx (with slide)		 |
  |  F: xxxx22 				 |
  |  D: x777xx (with slide)		 |
  |F10: x|10|10|10|x|x (with slide)	 |
  |G12: x|12|12|12|x|x (with slide)	 |
  |B15: x|15|15|15|x|x (with slide)	 |
  |A14: x|14|14|14|x|x (with slide)	 |
  |  p: Pull off of note 		 |
  |  /: Slide to note        		 |
  |  <: Increasing tempo             |
   -----------------------------------

   ------------------------------------------
  | Riff Definitions:				  |
  | RIFF 1: P.M.				  |
  | G  Bb   C    Bb   Bb  A  G  F   		 |
 D|-----------------------------3--3-3--	 |
 B|-----------------------------3--3-3--	 |
 G|-0--3p0--5p0--3p0--3-/-2--0----------	 |
 D|-0--3p0--5p0--3p0--3-/-2--0----------	 |
 G|-0--3p0--5p0--3p0--3-/-2--0----------	 |
 D|-------------------------------------	 |
  | RIFF 2:                          		 |
 D|--------------------				 |
 B|--------------------				 |
 G|-0-3-0-3/5-3-3/2-0--				 |
 D|--------------------				 |
 G|--------------------				 |
 D|--------------------				 |
  | RIFF 3:					  |
 D|--------------------				 |
 B|--------------------				 |
 G|-0-3-0-3/5-5-3/2-0--				 |
 D|--------------------				 |
 G|--------------------				 |
 D|--------------------				 |
  | RIFF 4:					 |
 D|--------------                -------------|
 B|--------------                -------------|
 G|-0-0-0-5/3-0--                -------------|
 D|-0-0-0-5/3-0--                -------------|
 G|-0-0-0-5/3-0--                -------------|
 D|--------------                -------------|
   -------------------------------------------|

 INTRO:
 Alright,

 RIFF 1: Played 4x

 VERSE 1: (Chords represent RIFF 1)
 G B5 C B5 B5 A   G     F
                I got a little bird
 G B5 C B5 B5 A     G     F
 	       I'm gonna take her home
 G B5 C B5 B5 A   G       F
 	         Put her in a cage
 G B5 C B5 B5 A     G     F
 	       And disconnect the phone

 BREAK 1:
 D|-----------------------------------------------------------3--3--3-3----------------------------3--3-3-|
 B|-----------------------5-----------------------------------3--3--3-3----------------------------3--3-3-|
 G|-0--3p0--5p0--3p0-/5-5---5-5-5/3-0--7-10-7-5-0--5-3-7-3--0------------0--3p0--5p0--3p0--3/2--0---------|
 D|-0--3p0--5p0--3p0-/5-5-------5/3-0--7-10-7-5-0--5-3-7-3--0------------0--3p0--5p0--3p0--3/2--0---------|
 G|-0--3p0--5p0--3p0-/5-5-------5/3-0--7-10-7-5-0--5-3-7-3--0------------0--3p0--5p0--3p0--3/2--0---------|
 D|-------------------------------------------------------------------------------------------------------|
                                     Yeah!

 D|--------------------------------------------------------------------------------------------------------|
 B|--------------------------------------------------------------------------------------------------------|
 G|-3/5-0-3/2-0--0-3/2-0-3/5-0-3/2-0-3/2-0-3/2-0--3/2-0-3/5-0-3/2-0-3/2-0--3/5-5/3-3/2-0-3/2-0-3/2-0-3/5-0-|
 D|-3/5-0-3/2-0--0-3/2-0-3/5-0-3/2-0-3/2-0-3/2-0--3/2-0-3/5-0-3/2-0-3/2-0--3/5-5/3-3/2-0-3/2-0-3/2-0-3/5-0-|
 G|-3/5-0-3/2-0--0-3/2-0-3/5-0-3/2-0-3/2-0-3/2-0--3/2-0-3/5-0-3/2-0-3/2-0--3/5-5/3-3/2-0-3/2-0-3/2-0-3/5-0-|
 D|--------------------------------------------------------------------------------------------------------|

 D|--------------------------------------------------------------------------------3--3--3-3--|
 B|-------------------------------------------5------------------------------------3--3--3-3--|
 G|-3/2-0--3/5-0-3/2-0-3/5-0-3/2-0-5/3-0--5-5---5-5-5/3-0--7-10-7-5-0--5-3-7-3--0-------------|
 D|-3/2-0--3/5-0-3/2-0-3/5-0-3/2-0-5/3-0--5-5-------5/3-0--7-10-7-5-0--5-3-7-3--0-------------|
 G|-3/2-0--3/5-0-3/2-0-3/5-0-3/2-0-5/3-0--5-5-------5/3-0--7-10-7-5-0--5-3-7-3--0-------------|
 D|-------------------------------------------------------------------------------------------|

 RIFF 1

 VERSE 2:
 If you give me a look
 I'm gonna get the book
 RIFF 2
 I'm gonna preach the word
 RIFF 3
 I wanna preach to birds
 RIFF 1
 As I walk the floor
 RIFF 1
 Yeah, this I know

 BREAK 2:
 D|-------------------------5---------------------------------3--3--3-3--------------------------------|
 B|---------------------------5-------------------------------3--3--3-3--------------------------------|
 G|-0--3p0--5p0--3p0-/5-5-5-----5/3-0--7-10-7-5-0--5-3-7-3--0------------0--3p0--5p0--3-3--3/2-0-3/2-0-|
 D|-0--3p0--5p0--3p0-/5-5-------5/3-0--7-10-7-5-0--5-3-7-3--0------------0--3p0--5p0--3-3--3/2-0-3/2-0-|
 G|-0--3p0--5p0--3p0-/5-5-------5/3-0--7-10-7-5-0--5-3-7-3--0------------0--3p0--5p0--3-3--3/2-0-3/2-0-|
 D|----------------------------------------------------------------------------------------------------|

 D|------------------------------------------------------------------------------------------------|
 B|------------------------------------------------------------------------------------------------|
 G|-3-0--3/2-0--3/2-0-3/2-0--3/5-0-3/2-0--3/2-0-3/2-0--3-3-0-3/2-0-0-3/2-0-0-3/5-0-3/2-0-3-3/2-0-0-|
 D|-3-0--3/2-0--3/2-0-3/2-0--3/5-0-3/2-0--3/2-0-3/2-0--3-3-0-3/2-0-0-3/2-0-0-3/5-0-3/2-0-3-3/2-0-0-|
 G|-3-0--3/2-0--3/2-0-3/2-0--3/5-0-3/2-0--3/2-0-3/2-0--3-3-0-3/2-0-0-3/2-0-0-3/5-0-3/2-0-3-3/2-0-0-|
 D|------------------------------------------------------------------------------------------------|

 D|------5------------------------------------|
 B|--------5----------------------------------|
 G|-/5-5-----5-5/3-0--7-10-7-5-0--5-3-7-3--0--|
 D|-/5-5-----5-5/3-0--7-10-7-5-0--5-3-7-3--0--|
 G|-/5-5-----5-5/3-0--7-10-7-5-0--5-3-7-3--0--|
 D|-------------------------------------------|


 Played 2x:
 <
 F10/G12  F10  Bb15  A14  F10

 <
 F10/G12  F10  Bb  C

 D|-------------------------3--3--3-3--|
 B|-------------------------3--3--3-3--|
 G|-7-10-7-5-0--5-3-7-3--0-------------|
 D|-7-10-7-5-0--5-3-7-3--0-------------|
 G|-7-10-7-5-0--5-3-7-3--0-------------|
 D|------------------------------------|

 RIFF 1: Played 3x

 VERSE 3:
 When I get you home
 RIFF 4
 This is how it goes
 RIFF 4
 I got nothing to lose
 RIFF 4
 I'll never let you go

 BREAK 3:
 D|-0-3-0-------5------------------------------------|
 B|---------------5----------------------------------|
 G|--------/5-5-----5-5/3-0--7-10-7-5-0--5-3-7-3--0--|
 D|--------/5-5-------5/3-0--7-10-7-5-0--5-3-7-3--0--|
 G|--------/5-5-------5/3-0--7-10-7-5-0--5-3-7-3--0--|
 D|--------------------------------------------------|

 D|-5-5--5-3-2-0------------0--|
 B|--------------3-3-3/5-6--0--|
 G|-------------------------0--|
 D|-------------------------0--|
 G|-------------------------0--|
 D|----------------------------|


 number 4

Tuning: Standard (E A D G B E)


i was lookin the other day and i thought the tabs on the site
was not as clear as it could be
and it missed the solo so im goin have a go

Intro:

--------------------------------|
--1--1--1--1--1--1--1--1--1--1--|
--2--2--2--2--0--2--2--2--2--0--|
--2--2--2--2--0--2--2--2--2--0--|
--------------------------------|
--------------------------------|

Verse:

--------------------------------1--1--1--1--1--1--1--1--1--1--|
--1--1--1--1--1--1--1--1--1--1--3--3--3--3--0--3--3--3--3--0--|
--2--2--2--2--0--2--2--2--2--0--2--2--2--2--0--2--2--2--2--0--|
--2--2--2--2--0--2--2--2--2--0--------------------------------|
--------------------------------------------------------------|
--------------------------------------------------------------|
  Hey little apple blossom

-----------------------------------------------------------|
--1--1--1--1--1--1--1--1--1--1--------------1--1--1--1--1--|
--2--2--2--2--0--2--2--2--2--0--------------2--2--2--2--0--|
--2--2--2--2--0--2--2--2--2--0--2--2--------2--2--2--2--0--|
--------------------------------2--2--2--2-----------------|
--------------------------------------3--3-----------------|
   All the ones....

--------------------------------1--1--1--1--1--1--1--1--1--1--|
--1--1--1--1--1--1--1--1--1--1--3--3--3--3--0--3--3--3--3--0--|
--2--2--2--2--0--2--2--2--2--0--2--2--2--2--0--2--2--2--2--0--|
--2--2--2--2--0--2--2--2--2--0--------------------------------|
--------------------------------------------------------------|
--------------------------------------------------------------|
  Come and Tell me what.....

-----------------------------------------------------------|
--1--1--1--1--1--1--1--1--1--1--------------1--1--1--1--1--|
--2--2--2--2--0--2--2--2--2--0--------------2--2--2--2--0--|
--2--2--2--2--0--2--2--2--2--0--2--2--------2--2--2--2--0--|
--------------------------------2--2--2--2-----------------|
--------------------------------------3--3-----------------|
   A little light is blinking


Chorus:

---1-----1--------------0-----------------------------0--------|
---3--3-----3-----1--1-----1-----------0--------1--1-----1-----|
---2-----------2--2-----------2-----------0-----2-----------2--|
------------------2--------------2--2--------2--2--------------|
---------------------------------2-----------------------------|
---------------------------------------------------------------|
  Lots of girls....


---1-----1--------------0---------------------------|
---3--3-----3-----1--1-----1------------------------|
---2-----------2--2-----------2---------------------|
------------------2--------------2----2-2-2-2-------|
---------------------------------2----2-2-2-2-2--2--|
----------------------------------------------3--3--|
   You've been looking....

Solo:

-----0--0---------------5-5-3-1-0-------0--0-------------------------------|
---3--------3-1-0-----------------3---3-------3-1-0----0-0--0-1-1-0--------|
------------------2---------------------------------2------------------0---|
---------------------------------------------------------------------2-----|
---------------------------------------------------------------------------|
---------------------------------------------------------------------------|


-----0--0---------------5-5-3-1-0-----------------------------------------------------|
---3--------3-1-0-----------------3---3p5-5-3-3-1-1-0-0--3-3-1-1-0-0-----0--0-0-------|
------------------2--------------------------------------------------2-2--------0-0-2-|
--------------------------------------------------------------------------------------|
--------------------------------------------------------------------------------------|
--------------------------------------------------------------------------------------|


Chorus:

---1-----1--------------0-----------------------------0--------|
---3--3-----3-----1--1-----1-----------0--------1--1-----1-----|
---2-----------2--2-----------2-----------0-----2-----------2--|
------------------2--------------2--2--------2--2--------------|
---------------------------------2-----------------------------|
---------------------------------------------------------------|
  Lots of girls....


---1-----1--------------0---------------------------|
---3--3-----3-----1--1-----1------------------------|
---2-----------2--2-----------2---------------------|
------------------2--------------2----2-2-2-2-------|
---------------------------------2----2-2-2-2-2--2--|
----------------------------------------------3--3--|
   You've been looking....


Verse:

--------------------------------1--1--1--1--1--1--1--1--1--1--|
--1--1--1--1--1--1--1--1--1--1--3--3--3--3--0--3--3--3--3--0--|
--2--2--2--2--0--2--2--2--2--0--2--2--2--2--0--2--2--2--2--0--|
--2--2--2--2--0--2--2--2--2--0--------------------------------|
--------------------------------------------------------------|
--------------------------------------------------------------|
Come and sit with me.......


------------------------------------------------------------------------------------|
--1--1--1--1--1--1--1--1--1--1--------------1-----------1-----------1-----1-1-1-2---|
--2--2--2--2--0--2--2--2--2--0--------------2-----------2-----------2-----2-2-2-2---|
--2--2--2--2--0--2--2--2--2--0--2--2--------2-----2-----2-----2-----2-----2-2-2-2---|
--------------------------------2--2--2--2--------2--2--------2--2------------------|
--------------------------------------3--3-----------3-----------3------------------|
   Put your troubles......


number 5

  --------------------------------------
 | Tab Definitions:			|
 |    D: xx0232 			|
 |Dsus4: xx0233 			|
 |    F: xxx565 			|
 |Fsus4: xxx566 			|
 |    G: xxx787 			|
 |Gsus4: xxx788           		|
 |    C: x32010         		|
 |    G: 320023 (in CHORUS)		|
 |    F: 133211 (in CHORUS)		|
 |  D14: x|x|x|14|15|14 (octave higher)|
  --------------------------------------

 INTRO and BREAK: Played 2x
 D Dsus4 D Dsus4 D / F Fsus4 F Fsus4 F / G Gsus4 G Gsus4 G  D Dsus4 D Dsus4 D

 BASS RIFF
 e|----------|
 B|----------|
 G|-3p0---0--|
 D|-----3----|
 A|----------|
 E|----------|

 VERSE 1: Same as the intro, but I've written the chords more simply
      D               Dsus4
 	I've thought about it for a while
      F              Fsus4
 	And thought about the many miles
      G                   Gsus4                D   BASS RIFF
 	But I think it's time that I've gone away
      D               Dsus4
 	The feelings that you had for me
      F             Fsus4
 	Have gone away it's plain to see
      G                  Gsus4
 	And it looks to me that you're pulling away

 CHORUS:
 ELECTRIC VIOLIN RIFF:
 e|--------------|
 B|-3h5-6p5-3-1--|
 G|--------------|
 D|--------------|
 A|--------------|
 E|--------------|
       C           G
  	I'm gonna pick it up
       C           G          D     Dsus4 D Dsus4 D  ELECTRIC VIOLIN RIFF
 	I'm gonna pick it up today
       C              G
 	I'm bound to pack it up
       C              G                  F   G
 	I'm bound to pack it up and go away

 ELECTRIC VIOLIN SOLO: Over BREAK
 e|------------------------------------------3p1-0-0-1----|
 B|-3h5-6p5-3-1-----3-5-3-----3-5-----5-6--------------3--|
 G|-------------------------------------------------------|
 D|-------------------------------------------------------|
 A|-------------------------------------------------------|
 E|-------------------------------------------------------|

 VERSE 2:
 I find it hard to say to you
 That this is what I have to do
 But there is no way that I'm gonna stay
 There are so many things you need to know
 And I want to tell you before I go
 But it's hard to think of just what to say

 CHORUS

 VERSE 3:
 I'm sorry to leave you all alone
 You're sitting, silent by the phone
 But we'd always known there would come a day
 The bus is warm and softly lit
 And a hundred people riding it
 I guess I'm just another running away

 CHORUS

 Oh yea-ah yea-ea-ah

 D Dsus4 D Dsus4 D / F Fsus4 F Fsus4 F / G Gsus4 G Gsus4 G / D14

number 6

Open G Tuning
D G D G B D

 -------------------------------------
| Tab Definitions:			|
|  G: x0000x				|
|  C: x5555x (with slide)		|
|  B: x3333x (with slide)		|
|  D: x7777x (with slide)		|
|  p: Pull off of note			|
|  b: Bend note less than a half step	|
|  /: Slide to note			|
 -------------------------------------

INTRO and RIFF 1: Played 4x
   G
D|--------------------------|
B|--------------------------|
G|---------3-0--3--3-3-3-3--|
D|---------0----------------|
G|-0----0-------------------|
D|---3b---------------------|

VERSE 1:
RIFF 1
I got a letter this mornin'
RIFF 1                     RIFF 1
What do ya reckon it read?
         RIFF 1
It said, "The gal you love is dead"
       /C                  C/B /C
I got a letter this mornin'
                 C/G
What do you reckon it read?

RIFF 2: Played 2x
D|------5-(p0)---------| the (p0) is only sometimes played
B|---------------------|
G|-3-0--------0-0---0--|
D|------------0-0---0--|
G|------------0-0---0--|
D|----------------3----|
     D              C                            G
Said, "Hurry, hurry, because the gal you love is dead"

RIFF 2: Played 2x

VERSE 2:
Well, I packed up my suitcase
I took off down the road
When I got there she was
Layin' on the coolin' board
I packed up my suitcase
And I took off down the road
When I got there she was
A-layin' on the coolin' board

TURNAROUND 1:
D|----------------------------------------------|
B|-------------------------------------/7--7/0--|
G|-----------------------------------0-/7--7/0--|
D|-----------------------------------0-/7--7/0--|
G|----5-5-----3-3------2-2----1-1------/7--7/0--|
D|-5-------3-------2--------1------0------------|
                                          Well,

BREAK 1: (There is so much improvisation is this break that I won't bother tabbing all the
chord timings. Each chord is
played longer than I have it shown)

RIFF 2: Played 2x
	                          C                                    D    C    B G
D|------5----------------------------------------5-------------5----------------------|
B|---------0-0-3/0--3-0-3--0-3-0-/5--5--0-------------------------0-0--7--7/5--5/3-0--|
G|-3-0-----0-0-3/0--3-0-3--0-3-0-/5--5--0--3-0-----3-3-0--3-0-----0-0--7--7/5--5/3-0--|
D|---------0-0-3/0--3-0-3--0-3-0-/5--5--0-------------------------0-0--7--7/5--5/3-0--|
G|---------0-0-3/0--3-0-3--0-3-0-/5--5--0-------------------------0-0--7--7/5--5/3-0--|
D|------------------------------------------------------------------------------------|

RIFF 2: Played 2x
Hey!
RIFF 1: Played 4x

VERSE 3:
It looked like ten thousand people
Standin' 'round the buryin' ground
I didn't know I loved her
'Til they began to let her down
Looked like ten thousand
People standin' 'round the buryin' ground
I didn't know that I loved her
'Til they began to let her down

VERSE 4:
You know, it's so hard to love
Someone that don't love you
Ain't no satisfaction
Don't care what you do
So hard to love
Yeah, someone that don't love you
Don't look like satisfaction, and I don't care what you do

TURNAROUND 2:

D|-----------------------------------------------|
B|--------------------------------------/7--7/0--|
G|--------------------------------------/7--7/0--|
D|--------------------------------------/7--7/0--|
G|----5-5-----3-3-----2----1--1-----0---/7--7/0--|
D|-5-------3-------2-----1-------0---------------|
                                           Yeah!
BREAK 2: Same rules apply to this break
									C
D|------3-3---------------3-3------------------------------------------------------------3-|
B|-----------------------------3-5-3-0--3-0--3-0-3-3/2-0--3-0-3-0-3-0--/5-5--5-3-0---------|
G|-3-0------0-3/2-0--3-0-------3-5-3-0--3-0--3-0-3-3/2-0--3-0-3-0-3-0--/5-5--5-3-0--3-0----|
D|----------0-3/2-0------------3-5-3-0--3-0--3-0-3-3/2-0--3-0-3-0-3-0--/5-5--5-3-0---------|
G|----------0-3/2-0------------3-5-3-0--3-0--3-0-3-3/2-0--3-0-3-0-3-0--/5-5--5-3-0---------|
D|-----------------------------------------------------------------------------------------|

                                    Repeated 8x: |----------------------------|
D|---------------3-------------------------------------------------------5/0--|
B|-0-3/5-0--3-0--3---------/7-7--7/10-10--0-3/2-0--3/2-0--3--3-0---/5-5--5/0--|
G|-0-3/5-0--3-0-----0-3-0--/7-7--7/10-10--0-3/2-0--3/2-0--3--3-0---/5-5--5/0--|
D|------------------0-3-0--/7-7--7/10-10--0-3/2-0--3/2-0--3--3-0---/5-5--5/0--|
G|------------------0-3-0--/7-7--7/10-10--0-3/2-0--3/2-0--3--3-0---/5-5--5/0--|
D|----------------------------------------------------------------------------|
                                                                 Hush!  Thought I heard her call
								 my name

D|------3-----------------3---------------------|
B|--------------------------------/7-7--/10-10--|
G|-3-0---------------3-0----------/7-7--/10-10--|
D|----------------------------0---/7-7--/10-10--|
G|--------0-0-0---0---------0---0-/7-7--/10-10--|
D|--------------3-------------------------------|

TURNAROUND 1

RIFF 1: Played 4x

VERSE 5:
Well, I got up this mornin', the break of day
Just huggin' the pillows where she used to lay
Got up this mornin', leave the break of day
Just huggin' the pillows where my baby used to lay

TURNAROUND 3:
D|------------------------------------|
B|------------------------------------|
G|-----------------------0--/7--/12---|
D|--------------------------/7--/12---|
G|-----3-----2-----1------------------|
D|--3-----2-----1-----0---------------|
 -------------------------------------|


 Open G Tuning
 D G D G B D

  ---------------------------------------
 | Tab Definitions:			|
 |  G: x0000x				|
 |  C: x5555x (with slide)		|
 |  B: x3333x (with slide)		|
 |  D: x7777x (with slide)		|
 |  p: Pull off of note			|
 |  b: Bend note less than a half step	|
 |  /: Slide to note			|
  ---------------------------------------

 INTRO and RIFF 1: Played 4x
    G
 D|--------------------------|
 B|--------------------------|
 G|---------3-0--3--3-3-3-3--|
 D|---------0----------------|
 G|-0----0-------------------|
 D|---3b---------------------|

 VERSE 1:
 RIFF 1
 I got a letter this mornin'
 RIFF 1                     RIFF 1
 What do ya reckon it read?
          RIFF 1
 It said, "The gal you love is dead"
        /C                  C/B /C
 I got a letter this mornin'
                  C/G
 What do you reckon it read?

 RIFF 2: Played 2x
 D|------5-(p0)---------| the (p0) is only sometimes played
 B|---------------------|
 G|-3-0--------0-0---0--|
 D|------------0-0---0--|
 G|------------0-0---0--|
 D|----------------3----|
      D              C                            G
 Said, "Hurry, hurry, because the gal you love is dead"

 RIFF 2: Played 2x

 VERSE 2:
 Well, I packed up my suitcase
 I took off down the road
 When I got there she was
 Layin' on the coolin' board
 I packed up my suitcase
 And I took off down the road
 When I got there she was
 A-layin' on the coolin' board

 TURNAROUND 1:
 D|----------------------------------------------|
 B|-------------------------------------/7--7/0--|
 G|-----------------------------------0-/7--7/0--|
 D|-----------------------------------0-/7--7/0--|
 G|----5-5-----3-3------2-2----1-1------/7--7/0--|
 D|-5-------3-------2--------1------0------------|
                                           Well,

 BREAK 1: (There is so much improvisation is this break that I won't bother tabbing all the
 chord timings. Each chord is
 played longer than I have it shown)

 RIFF 2: Played 2x
 	                          C                                    D    C    B G
 D|------5----------------------------------------5-------------5----------------------|
 B|---------0-0-3/0--3-0-3--0-3-0-/5--5--0-------------------------0-0--7--7/5--5/3-0--|
 G|-3-0-----0-0-3/0--3-0-3--0-3-0-/5--5--0--3-0-----3-3-0--3-0-----0-0--7--7/5--5/3-0--|
 D|---------0-0-3/0--3-0-3--0-3-0-/5--5--0-------------------------0-0--7--7/5--5/3-0--|
 G|---------0-0-3/0--3-0-3--0-3-0-/5--5--0-------------------------0-0--7--7/5--5/3-0--|
 D|------------------------------------------------------------------------------------|

 RIFF 2: Played 2x
 Hey!
 RIFF 1: Played 4x

 VERSE 3:
 It looked like ten thousand people
 Standin' 'round the buryin' ground
 I didn't know I loved her
 'Til they began to let her down
 Looked like ten thousand
 People standin' 'round the buryin' ground
 I didn't know that I loved her
 'Til they began to let her down

 VERSE 4:
 You know, it's so hard to love
 Someone that don't love you
 Ain't no satisfaction
 Don't care what you do
 So hard to love
 Yeah, someone that don't love you
 Don't look like satisfaction, and I don't care what you do

 TURNAROUND 2:

 D|-----------------------------------------------|
 B|--------------------------------------/7--7/0--|
 G|--------------------------------------/7--7/0--|
 D|--------------------------------------/7--7/0--|
 G|----5-5-----3-3-----2----1--1-----0---/7--7/0--|
 D|-5-------3-------2-----1-------0---------------|
                                            Yeah!
 BREAK 2: Same rules apply to this break
 									C
 D|------3-3---------------3-3------------------------------------------------------------3-|
 B|-----------------------------3-5-3-0--3-0--3-0-3-3/2-0--3-0-3-0-3-0--/5-5--5-3-0---------|
 G|-3-0------0-3/2-0--3-0-------3-5-3-0--3-0--3-0-3-3/2-0--3-0-3-0-3-0--/5-5--5-3-0--3-0----|
 D|----------0-3/2-0------------3-5-3-0--3-0--3-0-3-3/2-0--3-0-3-0-3-0--/5-5--5-3-0---------|
 G|----------0-3/2-0------------3-5-3-0--3-0--3-0-3-3/2-0--3-0-3-0-3-0--/5-5--5-3-0---------|
 D|-----------------------------------------------------------------------------------------|

                                     Repeated 8x: |----------------------------|
 D|---------------3-------------------------------------------------------5/0--|
 B|-0-3/5-0--3-0--3---------/7-7--7/10-10--0-3/2-0--3/2-0--3--3-0---/5-5--5/0--|
 G|-0-3/5-0--3-0-----0-3-0--/7-7--7/10-10--0-3/2-0--3/2-0--3--3-0---/5-5--5/0--|
 D|------------------0-3-0--/7-7--7/10-10--0-3/2-0--3/2-0--3--3-0---/5-5--5/0--|
 G|------------------0-3-0--/7-7--7/10-10--0-3/2-0--3/2-0--3--3-0---/5-5--5/0--|
 D|----------------------------------------------------------------------------|
                                                                  Hush!  Thought I heard her
								  call my name

 D|------3-----------------3---------------------|
 B|--------------------------------/7-7--/10-10--|
 G|-3-0---------------3-0----------/7-7--/10-10--|
 D|----------------------------0---/7-7--/10-10--|
 G|--------0-0-0---0---------0---0-/7-7--/10-10--|
 D|--------------3-------------------------------|

 TURNAROUND 1

 RIFF 1: Played 4x

 VERSE 5:
 Well, I got up this mornin', the break of day
 Just huggin' the pillows where she used to lay
 Got up this mornin', leave the break of day
 Just huggin' the pillows where my baby used to lay

 TURNAROUND 3:
 D|-----------------------------------|
 B|-----------------------------------|
 G|-----------------------0--/7--/12--|
 D|--------------------------/7--/12--|
 G|-----3-----2-----1-----------------|
 D|--3-----2-----1-----0--------------|


number 7

Open D Tuning
D A D F# A D

 ----------------------------------
| Tab Definitions:			 |
|   D: 000000				 |
|   A: 555555 (with slide)		 |
|   B: 777777 (with slide)		 |
|   G: 333333 (with slide)		 |
|  Ab: 444444 (with slide)		 |
|   A: 555555 (with slide)		 |
|  G5: 333xxx				 |
|  A5: 555xxx				 |
|   /: Slide to note (with slide)	 |
|N.C.: No Chord played			 |
 ----------------------------------

INTRO: P.M.
D

RIFF 1: Played with slide
 D|------------------|
 A|------------------|
F#|-----7------------|
 D|-5/7---7/5-5/4-5--|
 A|------------------|
 D|------------------|

D
RIFF 1
D

VERSE 1:
D                                RIFF 1  D
Well, we're back in school again
                               RIFF 1  D
And I don't really know anyone
                                RIFF 1  D
I really want to be your friend
                                  /A
'Cause I don't really know anyone
                                 /B
And the bus is pulling up to your house
  N.C.
I wish you could be sitting here next to me

RIFF 2:
 D|-----7-----4/5-4----|
 A|-5/7---7/5-------5--|
F#|--------------------|
 D|--------------------|
 A|--------------------|
 D|--------------------|

D
RIFF 1
D
RIFF 1

VERSE 2:
I didn't see you at summer school
But I saw you at the corner store
And I don't want to break the rules
'Cause I've broken them all before
But every time I see you I wonder why
I don't break a couple rules so that you'll notice me

RIFF 2
D
RIFF 1

RIFF 3:
 D|-----7------------|
 A|-5/7---7/5--------|
F#|------------------|
 D|-----------5/4-5--|
 A|------------------|
 D|------------------|

D

VERSE 3: No P.M.
D                           G5 A5  E
Sister do you know my name?
                                        G/Ab/A
I've heard it before but I want to know
                                          /B
I got a funny feeling that it's gonna work out
      N.C.
'Cause now I see you sitting here next to me

RIFF 1

 Open D Tuning
 D A D F# A D

  ----------------------------------
 | Tab Definitions:			|
 |   D: 000000				|
 |   A: 555555 (with slide)		|
 |   B: 777777 (with slide)		|
 |   G: 333333 (with slide)		|
 |  Ab: 444444 (with slide)		|
 |   A: 555555 (with slide)		|
 |  G5: 333xxx				|
 |  A5: 555xxx				|
 |   /: Slide to note (with slide)	|
 |N.C.: No Chord played			|
  ----------------------------------

 INTRO: P.M.
 D

 RIFF 1: Played with slide
  D|------------------|
  A|------------------|
 F#|-----7------------|
  D|-5/7---7/5-5/4-5--|
  A|------------------|
  D|------------------|

 D
 RIFF 1
 D

 VERSE 1:
 D                                RIFF 1  D
 Well, we're back in school again
                                RIFF 1  D
 And I don't really know anyone
                                 RIFF 1  D
 I really want to be your friend
                                   /A
 'Cause I don't really know anyone
                                  /B
 And the bus is pulling up to your house
   N.C.
 I wish you could be sitting here next to me

 RIFF 2:
  D|-----7-----4/5-4----|
  A|-5/7---7/5-------5--|
 F#|--------------------|
  D|--------------------|
  A|--------------------|
  D|--------------------|

 D
 RIFF 1
 D
 RIFF 1

 VERSE 2:
 I didn't see you at summer school
 But I saw you at the corner store
 And I don't want to break the rules
 'Cause I've broken them all before
 But every time I see you I wonder why
 I don't break a couple rules so that you'll notice me

 RIFF 2
 D
 RIFF 1

 RIFF 3:
  D|-----7------------|
  A|-5/7---7/5--------|
 F#|------------------|
  D|-----------5/4-5--|
  A|------------------|
  D|------------------|

 D

 VERSE 3: No P.M.
 D                           G5 A5  E
 Sister do you know my name?
                                         G/Ab/A
 I've heard it before but I want to know
                                           /B
 I got a funny feeling that it's gonna work out
       N.C.
 'Cause now I see you sitting here next to me

 RIFF 1
 D

number 8

 ------------------------------------
| Tab Definitions:			 |
| Am: x02210				 |
|  G: 320003				 |
|  C: x32010				 |
|  D: xx0232				 |
|  E: 022100				 |
|  h: Hammer onto note			 |
|  p: Pull off of note			 |
|  X: Strumming all strings muted	 |
 ------------------------------------

Guitar 1 is acoustic and 2 is electric. There are also piano progressions I have tabbed to Guitar 2.

INTRO:
Am
Guitar 2:
e|-------------------------------------------------------------------|
B|-------------------------------------------------------------------|
G|-------------------------------------------------------------------|
D|-------------------------------------------------------------------|
A|-2h3-5p3-2p0----0h2h3-5p3-2p0-0--0h2h3-5p3-2p0----0-2-3-5p3-2p0-0--|
E|-------------3---------------------------------3-------------------|

RIFF 1: Guitar 2
Played 2x
e|-------------------------------|
B|-------------------------------|
G|-------------------------------|
D|-------------------------------|
A|-2h3-5p3-2p0----2h3-5p3-2p0-0--|
E|-------------3-----------------|

VERSE 1: Guitar 1
Am                       G
My baby's got a heart of stone
          C           D          Am
Can't you people just leave her alone
                         G        C
She never did nothing to hurt you
        D          Am
So just leave her alone
                       G
The motion of her tiny hands
        C             D       Am
And the quiver of her bones below
                         G
Are the signs of a girl alone
             C              D       C
And tell you everything you need to know

CHORUS:
C                     D
I can't explain it, I feel it often
                     Am
Every time I see her face

PIANO RIFF 1:
   Am
e|-------------------------|
B|---0-1-0----------0-1-0--|
G|-2-------0-2-2--2--------|
D|-------------------------|
A|-------------------------|
E|-------------------------|
        C                      D
But the way you treat her, it fills me with rage
                             E     X  X X
And I want to tear apart the place

BREAK: Played 2x
   Guitar 2         Piano
e|-------------------------------------------------------------|
B|------------------1-1-1-0-1-----------------0-0-0---0-(1-0)--|
G|--------------------------------------------------2----------|
D|-------------------------------------------------------------|
A|-0-2-3-5p3-2p0-0-------------2h3-5p3-2p0---------------------|
E|-----------------------------------------3-------------------|
Parentheses are not ghost notes, but notes sometimes played

RIFF 1

VERSE 2:
Am                          G
You try to tell her what to do
    C               D        Am
And all she does is stare at you
                              G
Her stare is louder than your voice
        C             D      C
Because truth doesn't make a noise
                         D
No, truth doesn't make a noise
                     E     X  X X
Truth doesn't make a noise

BREAK

CHORUS:
C N.C.                D N.C.
I can't explain it, I feel it often
                     Am   PIANO RIFF 1  C
Every time I see her face
N.C.
But the way you treat her, it fills me with rage
                             E     X  X X
And I want to tear apart the place

BREAK: Played 4x (with some piano rhythm changes)

Am



number 9
Open E Tuning
E B E G# B D

OR

Open D Tuning
D A D F# A D capo 2nd fret

 -------------------------------------------
| Tab Definitions:				  |
|  D: 000000					  |
|  F: 333333					  |
|  G: 555555					  |
|  A: 777777					  |
|  /: Slide to note                         |
 -------------------------------------------

INTRO: Played 3x
    D                    F/G     G/A
 D|----0-----0-----0----------------------|
 A|---------------------------------------|
F#|----------------------3/5--5--5/7--7/--|
 D|----------------------3/5--5--5/7--7/--|
 A|-------------------0--3/5--5--5/7--7/--|
 D|-0-----0-----0-------------------------|

VERSE 1:
D                              F/G G/A  D
I just don't fit in this place
                                   F/G G/A  D
Their thoughts cast me out of here
                                F/G G/A  D
Their home has run out of space
                              F/G G/A A/F
My mind's already out of here
                            /G
Won't you come along, dear?
         /A           D
Won't you come along?

VERSE 2:
Words that are spoke alone
Phrases you will never hear
Empty rooms and a telephone
That I will never use, never fear
I am all alone, dear
I am all alone

BREAK:
 D|----0----------0-----------------0--------------------------------------------------------------|
 A|------------------------------------------------------------------------------------------------|
F#|------------------------------------0-5-7--7-7-7--7/0-0--12-12-12-12/0--0-0--12-12-12-12/0--0-0-|
 D|------------------------------------0-5-7--7-7-7--7/0-0--12-12-12-12/0--0-0--12-12-12-12/0--0-0-|
 A|------------------------------------0-5-7--7-7-7--7/0-0--12-12-12-12/0--0-0--12-12-12-12/0--0-0-|
 D|-0-----0--0-0----0-0-0--0--0--0-----------------------------------------------------------------|

 D|--------------------------------------------------------------------------12-----------------------------|
 A|--------------------------------------------------------------------10/12----12----10/12--10/12-10/12----|
F#|-10-10-10-10/0--0-0--10-10-10-10/0--0-0--3-3-3-3-3-3-5-5-5-5-5-5-0--------------12--------------------12-|
 D|-10-10-10-10/0--0-0--10-10-10-10/0--0-0--3-3-3-3-3-3-5-5-5-5-5-5-0---------------------------------------|
 A|-10-10-10-10/0--0-0--10-10-10-10/0--0-0--3-3-3-3-3-3-5-5-5-5-5-5-0---------------------------------------|
 D|---------------------------------------------------------------------------------------------------------|

 D|--------------------------------------------------------------------------------------------------------------------|
 A|--------------------------------------------------------------------------------------------------------------------|
F#|-12/-12-12-12-12/0--0-0--12-12-12-12/0--0-0-10-10-10-10/0--0-0--10-10-10-10/0--0-0--3-3-3-3-3-3-5-5-5-5-5-5--5-5-7--|
 D|-12/-12-12-12-12/0--0-0--12-12-12-12/0--0-0-10-10-10-10/0--0-0--10-10-10-10/0--0-0--3-3-3-3-3-3-5-5-5-5-5-5--5-5-7--|
 A|-12/-12-12-12-12/0--0-0--12-12-12-12/0--0-0-10-10-10-10/0--0-0--10-10-10-10/0--0-0--3-3-3-3-3-3-5-5-5-5-5-5--5-5-7--|
 D|--------------------------------------------------------------------------------------------------------------------|

D (Played 2x)

F/G G/A D

VERSE 3:
My dogs come sit next to me
A pack of dogs and cigarettes
My only friends speak no words to me
But they look at me and they don't forget
That a boy's best friend
          /D N.C.
Is his mother or whatever has become his pet
 -----------------------------------
 | A Boy's Best Friend		    |
 | Words and Music by Jack White     |
 | Tabbed by Patrick Ferris          |
  -----------------------------------

 Open E Tuning
 E B E G# B D

 OR

 Open D Tuning
 D A D F# A D capo 2nd fret

  --------------------------------------------
 | Tab Definitions:				 |
 |  D: 000000					 |
 |  F: 333333					 |
 |  G: 555555					 |
 |  A: 777777					 |
 |  /: Slide to note                       	 |
  --------------------------------------------

 INTRO: Played 3x
     D                    F/G     G/A
  D|----0-----0-----0----------------------|
  A|---------------------------------------|
 F#|----------------------3/5--5--5/7--7/--|
  D|----------------------3/5--5--5/7--7/--|
  A|-------------------0--3/5--5--5/7--7/--|
  D|-0-----0-----0-------------------------|

 VERSE 1:
 D                              F/G G/A  D
 I just don't fit in this place
                                    F/G G/A  D
 Their thoughts cast me out of here
                                 F/G G/A  D
 Their home has run out of space
                               F/G G/A A/F
 My mind's already out of here
                             /G
 Won't you come along, dear?
          /A           D
 Won't you come along?

 VERSE 2:
 Words that are spoke alone
 Phrases you will never hear
 Empty rooms and a telephone
 That I will never use, never fear
 I am all alone, dear
 I am all alone

 BREAK:
  D|----0----------0-----------------0--------------------------------------------------------------|
  A|------------------------------------------------------------------------------------------------|
 F#|------------------------------------0-5-7--7-7-7--7/0-0--12-12-12-12/0--0-0--12-12-12-12/0--0-0-|
  D|------------------------------------0-5-7--7-7-7--7/0-0--12-12-12-12/0--0-0--12-12-12-12/0--0-0-|
  A|------------------------------------0-5-7--7-7-7--7/0-0--12-12-12-12/0--0-0--12-12-12-12/0--0-0-|
  D|-0-----0--0-0----0-0-0--0--0--0-----------------------------------------------------------------|

  D|--------------------------------------------------------------------------12-----------------------------|
  A|--------------------------------------------------------------------10/12----12----10/12--10/12-10/12----|
 F#|-10-10-10-10/0--0-0--10-10-10-10/0--0-0--3-3-3-3-3-3-5-5-5-5-5-5-0--------------12--------------------12-|
  D|-10-10-10-10/0--0-0--10-10-10-10/0--0-0--3-3-3-3-3-3-5-5-5-5-5-5-0---------------------------------------|
  A|-10-10-10-10/0--0-0--10-10-10-10/0--0-0--3-3-3-3-3-3-5-5-5-5-5-5-0---------------------------------------|
  D|---------------------------------------------------------------------------------------------------------|

  D|--------------------------------------------------------------------------------------------------------------------|
  A|--------------------------------------------------------------------------------------------------------------------|
 F#|-12/-12-12-12-12/0--0-0--12-12-12-12/0--0-0-10-10-10-10/0--0-0--10-10-10-10/0--0-0--3-3-3-3-3-3-5-5-5-5-5-5--5-5-7--|
  D|-12/-12-12-12-12/0--0-0--12-12-12-12/0--0-0-10-10-10-10/0--0-0--10-10-10-10/0--0-0--3-3-3-3-3-3-5-5-5-5-5-5--5-5-7--|
  A|-12/-12-12-12-12/0--0-0--12-12-12-12/0--0-0-10-10-10-10/0--0-0--10-10-10-10/0--0-0--3-3-3-3-3-3-5-5-5-5-5-5--5-5-7--|
  D|--------------------------------------------------------------------------------------------------------------------|

 D (Played 2x)

 F/G G/A D

 VERSE 3:
 My dogs come sit next to me
 A pack of dogs and cigarettes
 My only friends speak no words to me
 But they look at me and they don't forget
 That a boy's best friend
           /D N.C.
 Is his mother or whatever has become his pet


number 10
Open D Tuning
D A D F# A D

 --------------------------
| Tab Definitions:		 |
|  D5: 000xxx			 |
|  F5: 333xxx			 |
|  A5: 555xxx			 |
|   /: Slide to note		 |
|  (): Heavily muted note	 |
|N.C.: No Chord played		 |
 --------------------------

INTRO:
Mother: "You just sing some of the song. Do you know any by heart?"
John Gillis (Jack White at age six/seven): "Which..."
Brother: "Sing that one song you were singing about the little red box."
Mother: "Oh, yeah I haven't heard that in a long time. Did you forget it?"
John: "No."
Brother: "Bet you forgot all the words to it."
Mother: "Show me how it goes. I forget. 'Cause I want to remember, and I want to --"
John: "OK."
Brother: "Sit still."
John: "I- I wish I had a little red box / To put my best friends in / I'd take them out and"
Brother (whisper): "Sit still."
John: "And put them back again."

 D|-------|
 A|-------|
F#|-------|
 D|-12/0--|
 A|-12/0--|
 D|-12/0--|

Played 3x:
Rhythm:	1  +  2  +  3  +  4  +
Chords: D5 D5 F5 F5 D5 D5 F5 F5

     Whoo!
D5 F5 D5 F5

Played 2x:
D5 F5 D5 F5

VERSE 1:
D5   F5         D5    F5
Some bricks now baby, say
D5    F5      D5   F5 D5
Let's build a home
     F5         D5    F5
Some bricks now baby, say
D5    F5      D5   F5
Let's build a home
      G5
C'mon
        D5 F5 D5 F5
Alright
      A5 N.C.  A5 N.C.  A5 N.C.  A5
C'mon    Whoo!    Whoo!    Whoo!    Yeah!

Played 4x: D5 F5 D5 F5

VERSE 2:
I'm gettin' lazy
Won't ya throw me a bone?
I'm gettin' lazy
Won't ya throw me a bone?
C'mon
Alright
C'mon    Whoo! Whoo! Whoo! Yeah!

BREAK: With slide
 D|------------|
 A|------------|
F#|------------|
 D|-0--3-/-24--|
 A|-0--3-/-24--|
 D|-0--3-/-24--|

Played 4x: D5 F5 D5 F5

 D|---(3-/-12)-12/24--|
 A|---(3-/-12)-12/24--|
F#|---(3-/-12)-12/24--|
 D|-0-----------------|
 A|-0-----------------|
 D|-0-----------------|

Played 4x: D5 F5 D5 F5

Ah,
VERSE 1
D5


number 11
---------------------
| Tab Definitions:	  |
| G5: 355xxx		  |
| F5: 133xxx		  |
| C5: X355xx		  |
|Bb5: x133xx		  |
| D5: x577xx		  |
|  b: Bend to note	  |
 ---------------------

INTRO:
Rhythm:	1  +  2  +  3  +     4
Chords: G5 G5 F5 F5 G5 G5 F5

G5 F5 G5 F5
	    Alright
G5 F5 G5 F5

RIFF 1:
e|-15-14b15--|
B|-----------|
G|-----------|
D|-----------|
A|-----------|
E|-----------|

G5 F5 G5 F5
RIFF 1
G5 F5 G5 F5

VERSE 1:
	G5 F5 G5 F5
Jumble, jumble
        G5 F5 G5 F5
All at my house
	C5 Bb5 C5 Bb5
Come on over
	     G5 F5 G5 F5
Sleep on the couch
           D5     C5
Can't even see ya
            G5 F5 G5 F5
Look like a mouse

BREAK 1:
Played 4x:
G5
e|-15-14-15-14-15-14-15-14-15-14-15-14b15--|
B|-----------------------------------------|
G|-----------------------------------------|
D|-----------------------------------------|
A|-----------------------------------------|
E|-----------------------------------------|

G5 F5 G5 F5 RIFF 1
Played 3x: G5 F5 G5 F5

VERSE 2:
Crumble, crumble
The bag is brown
Rip up the paper
To hear a sound
Pick the pieces
Up off the ground

BREAK 2:
Played 3x:
G5
e|-15-14-15-14-15-14-15-14-15-14-15-14b15--|
B|-----------------------------------------|
G|-----------------------------------------|
D|-----------------------------------------|
A|-----------------------------------------|
E|-----------------------------------------|

e|-15-14-15-14-15-14----18-15-18b19-15--|
B|--------------------------------------|
G|-------------------15-----------------|
D|--------------------------------------|
A|--------------------------------------|
E|--------------------------------------|

Rhythm:	1  +  2  +  3  +     4
Chords:	G5 G5 F5 F5    G5 G5 F5

e|-15-18b19--|
B|-----------|
G|-----------|
D|-----------|
A|-----------|
E|-----------|

G5 F5 G5 F5

VERSE 3:
Tumble, tumble
On to the floor
Roll over
Until you're poor
Wave to me
I'm at the door


number 12
-------------------------
| Tab Definitions:		 |
| G5: 355xxx			 |
| F5: 133xxx			 |
|  G: 355433			 |
|  p: Pull off of note		 |
|  b: Bend to note		 |
|  /: Slide to note		 |
 -------------------------

INTRO: (Left channel)
One, two, three
   G5
e|---------------------------------------|
B|---------------------------------------|
G|------3-b4-------3-b4-------3b/0-- (3--|b4 is a delayed but sharp bend, with no relax)
D|-5-5--------5-5--------5-5-------------|
A|-5-5--------5-5--------5-5-------------|
E|-3-3--------3-3--------3-3-------------|

(Both channels)
G5 F5  G5 F5
RIFF 1: Played 4x
e|------------|
B|------------|
G|------3-b4--|
D|-5-5--------|
A|-5-5--------|
E|-3-3--------|

VERSE 1:
RIFF 1     RIFF 1    F
Somebody's screaming
                              RIFF 1 4x
Lookin' at the ceiling  oh-oh
RIFF 1          RIFF 1  F
Everything's so funny
                              RIFF 1 4x
I don't have the money  oh-oh
RIFF 1                RIFF 1  F
Ah, people don't even know me
                                    RIFF 1 4x (/)
But they know how to show me  oh-oh

CHORUS:
Played 3x:
   G5      ELECTRIC VIOLIN
e|-------------------------|
B|-------------------------|
G|---------12-12-10p0-3-0--|
D|-5-5--5------------------|
A|-5-5--5------------------|
E|-3-3--3------------------|

F5

Why can't you be nicer to me?

INTRO riff

VERSE 2:
My pride is dying
I think I'm all done lying  oh-oh
Nobody's sharing
So I stop caring  oh-oh
All alone and walking
Nobody's talking  oh-oh

Hey!
CHORUS

VERSE 3:
Well the wind is blowing
Where am I going?  oh-oh
Off a bridge and falling
Nobody's calling  oh-oh
On the ground and laying
Nobody's praying  oh-oh

CHORUS

ELECTRIC VIOLIN SOLO:
e|-------------------------------|
B|-------------------------------|
G|-0-0--0-0--0-0--0-0--0-0--0-0--|
D|-0-0--0-0--0-0--0-0--0-0--0-0--| this string is not in the violin part, but it makes the
guitar more like it
A|-------------------------------|
E|-------------------------------|

G (clean)
 -----------------------------------
 | Why Can't You Be Nicer to Me?	    |
 | Words and Music by Jack White     |
 | Tabbed by Patrick Ferris          |
  -----------------------------------

  -----------------------
 | Tab Definitions:	|
 | G5: 355xxx		|
 | F5: 133xxx		|
 |  G: 355433		|
 |  p: Pull off of note	|
 |  b: Bend to note	|
 |  /: Slide to note	|
  -----------------------

 INTRO: (Left channel)
 One, two, three
    G5
 e|---------------------------------------|
 B|---------------------------------------|
 G|------3-b4-------3-b4-------3b/0-- (3--|b4 is a delayed but sharp bend, with no relax)
 D|-5-5--------5-5--------5-5-------------|
 A|-5-5--------5-5--------5-5-------------|
 E|-3-3--------3-3--------3-3-------------|

 (Both channels)
 G5 F5  G5 F5
 RIFF 1: Played 4x
 e|------------|
 B|------------|
 G|------3-b4--|
 D|-5-5--------|
 A|-5-5--------|
 E|-3-3--------|

 VERSE 1:
 RIFF 1     RIFF 1    F
 Somebody's screaming
                               RIFF 1 4x
 Lookin' at the ceiling  oh-oh
 RIFF 1          RIFF 1  F
 Everything's so funny
                               RIFF 1 4x
 I don't have the money  oh-oh
 RIFF 1                RIFF 1  F
 Ah, people don't even know me
                                     RIFF 1 4x (/)
 But they know how to show me  oh-oh

 CHORUS:
 Played 3x:
    G5      ELECTRIC VIOLIN
 e|-------------------------|
 B|-------------------------|
 G|---------12-12-10p0-3-0--|
 D|-5-5--5------------------|
 A|-5-5--5------------------|
 E|-3-3--3------------------|

 F5

 Why can't you be nicer to me?

 INTRO riff

 VERSE 2:
 My pride is dying
 I think I'm all done lying  oh-oh
 Nobody's sharing
 So I stop caring  oh-oh
 All alone and walking
 Nobody's talking  oh-oh

 Hey!
 CHORUS

 VERSE 3:
 Well the wind is blowing
 Where am I going?  oh-oh
 Off a bridge and falling
 Nobody's calling  oh-oh
 On the ground and laying
 Nobody's praying  oh-oh

 CHORUS

 ELECTRIC VIOLIN SOLO:
 e|-------------------------------|
 B|-------------------------------|
 G|-0-0--0-0--0-0--0-0--0-0--0-0--|
 D|-0-0--0-0--0-0--0-0--0-0--0-0--| this string is not in the violin part, but it makes the
 guitar more like it
 A|-------------------------------|
 E|-------------------------------|

 G (clean)

number 13
--------------------------------------
| Tab Definitions:
|   A: x02220
|A/Ab: 402220
| A/G: 302220
|  F#: 244322
|   E: 022100
|   B: x2444x
|  B5: x244xx
|  D5: x577xx
|   b: Bend note less than a half step
 -------------------------------------

12-String Guitar

INTRO:
         A         F#    E  B  E  A
e|--------------------------------0--|
B|--------------------------4-----2--|
G|---------2-2--------------4-----2--|
D|---------2-2---------2----4--2--2--|
A|-------0------------------2--2--0--|
E|-0-2-4-------4-3-0h2---0-----0-----|

VERSE 1:
     A           A/Ab  A/G    F#
Now, lookie here momma let me explain ya this
      A         A/Ab         A/G  F#
If ya wanna get crooked I'll even give ya my fist
         A              A/Ab    A/G F#
Ya might read from Rev-el-a-tion    back to Genesi`        `Genisis
   B                               E        A
Ya keep forget your Southern can belongs to me

CHORUS: (In the mornin')
         A               A/Ab     A/G F#
So there ain't no use in bringin' no  jive to me
     B        E      A           F#
Your Southern can is mine in the mornin'
     B              E        A
Your Southern can belongs to me

VERSE 2:
Ya might go uptown, have me arrested, put in jail
Some hotshots got money, gonna pull my bail
Soon as I get out, hit the ground
Your Southern can is worth a thousand, half a pound

CHORUS (Talkin' about it)

VERSE 4:
You might take it from the south, baby, hide it up north
Understand you can't rule me or be my boss
Take it from the east, hide in the west
But when I get ya momma your can'll see no rest

CHORUS (I'm screamin')

VERSE 5:
          A               A7
Now baby, ashes to ashes, sand to sand
D                           D
When I hit ya momma then ya feel my hand
A                             A7
Give you a punch through that barbed wire fence
D
When I hit ya baby, ya know I make no sense

e|--------|
B|--------|
G|--------|
D|--------|
A|--------|
E|-0-2-4--|

CHORUS (I know it)

VERSE 6:
Now look here woman, don't get hot
I'm gettin' me a brick outta my backyard

CHORUS (I'm talkin' about it)

VERSE 7:
Well, if I catch you momma down in the heart of town
I'm gonna grab me a brick and tear your can on down

CHORUS (I know it)

VERSE 8:
You maybe get bed sickness, baby, graveyard bound
I'm gonna make you moan like a graveyard hound
Baby,
CHORUS (I'm screamin')
A A

John Lomax: "You keep movin' around like you're uncomfortable. What's the matter, Willie?"
Blind Willie McTell: "Well, I was in an automobile accident last night and I'm still shuck-up.
No one got hurt, but they was all, um, jostled up mighty bad. Shake-up. Still sore from it,
but no one got hurt."
 -----------------------------------
 | Your Southern Can Is Mine	    |
 | Written by Blind Willie McTell    |
 | Tabbed by Patrick Ferris          |
  -----------------------------------

  --------------------------------------
 | Tab Definitions:			|
 |   A: x02220				|
 |A/Ab: 402220				|
 | A/G: 302220				|
 |  F#: 244322				|
 |   E: 022100				|
 |   B: x2444x				|
 |  B5: x244xx				|
 |  D5: x577xx				|
 |   b: Bend note less than a half step|
  --------------------------------------

 12-String Guitar

 INTRO:
          A         F#    E  B  E  A
 e|--------------------------------0--|
 B|--------------------------4-----2--|
 G|---------2-2--------------4-----2--|
 D|---------2-2---------2----4--2--2--|
 A|-------0------------------2--2--0--|
 E|-0-2-4-------4-3-0h2---0-----0-----|

 VERSE 1:
      A           A/Ab  A/G    F#
 Now, lookie here momma let me explain ya this
       A         A/Ab         A/G  F#
 If ya wanna get crooked I'll even give ya my fist
          A              A/Ab    A/G F#
 Ya might read from Rev-el-a-tion    back to Genesi`        `Genisis
    B                               E        A
 Ya keep forget your Southern can belongs to me

 CHORUS: (In the mornin')
          A               A/Ab     A/G F#
 So there ain't no use in bringin' no  jive to me
      B        E      A           F#
 Your Southern can is mine in the mornin'
      B              E        A
 Your Southern can belongs to me

 VERSE 2:
 Ya might go uptown, have me arrested, put in jail
 Some hotshots got money, gonna pull my bail
 Soon as I get out, hit the ground
 Your Southern can is worth a thousand, half a pound

 CHORUS (Talkin' about it)

 VERSE 4:
 You might take it from the south, baby, hide it up north
 Understand you can't rule me or be my boss
 Take it from the east, hide in the west
 But when I get ya momma your can'll see no rest

 CHORUS (I'm screamin')

 VERSE 5:
           A               A7
 Now baby, ashes to ashes, sand to sand
 D                           D
 When I hit ya momma then ya feel my hand
 A                             A7
 Give you a punch through that barbed wire fence
 D
 When I hit ya baby, ya know I make no sense

 e|--------|
 B|--------|
 G|--------|
 D|--------|
 A|--------|
 E|-0-2-4--|

 CHORUS (I know it)

 VERSE 6:
 Now look here woman, don't get hot
 I'm gettin' me a brick outta my backyard

 CHORUS (I'm talkin' about it)

 VERSE 7:
 Well, if I catch you momma down in the heart of town
 I'm gonna grab me a brick and tear your can on down

 CHORUS (I know it)

 VERSE 8:
 You maybe get bed sickness, baby, graveyard bound
 I'm gonna make you moan like a graveyard hound
 Baby,
 CHORUS (I'm screamin')
 A A

 John Lomax: "You keep movin' around like you're uncomfortable. What's the matter, Willie?"
 Blind Willie McTell: "Well, I was in an automobile accident last night and I'm still shuck-up.
 No one got hurt, but they was all, um, jostled up mighty bad. Shake-up. Still sore from it,
 but no one got hurt."
comments
print report bad tab
4 comments total. Showing first comments.
0 reply
a_rush_of_blood wrote on November 27 2005, 01:08 am

this is taken straight from www.brokenbricks.com
get all your white stripes tabs there

0 reply
eevilspawn wrote on January 24 2006, 04:19 pm

youre a theiving bastard, quit stealing tabs from www.brokenbricks.com. http://brokenbricks.com/cgi-bin/tab.cgi?/tabs/De Stijl/Little Bird.txt http://brokenbricks.com/cgi-bin/tab.cgi?/tabs/De Stijl/Apple Blossom.txt http://brokenbricks.com/cgi-bin/tab.cgi?/tabs/De Stijl/Your Southern Can Is Mine.txt

0 reply
WhiteStripesIII wrote on June 7 2006, 03:00 pm

*sigh* another one from brokenbricks

I want to post or [tab]
guest
You may want to rate the tab now too:
select rating
Please do not post tabs as comments. Select "correction" instead!