Oops, an error
Loading. Please wait.

Get Behind Me Satan Tab

ver1
ver1

Album

More versions @911Tabs.com
21,870 views 27 this week
7 commentsread comments
1 2 3 4 5
worth learning
x 8
Autoscroll
+/-
esc
set tempo
stop
Contributor
NEW! There's an official Ultimate Guitar app which is ideal
for learning songs when you're away from computer. Get the app
WARNING: You are trying to view
                                    content from Ultimate-Guitar.com
                                    in an unauthorized application,
                                    which is prohibited.

                                    Please use an official Ultimate
                                    Guitar Tabs application for iPhone,
                                    iPad or Android to access legitimate
                                    chords, guitar, bass, and drum tabs
                                    from Ultimate-Guitar.com database.

                                    Type "ultimate guitar tabs" in Apple
                                    App Store's or Android Market's
                                    search to find the application.
-------------------------------------------------------------------------------
White Stripes - GET BEHIND ME SATAN
-------------------------------------------------------------------------------
Tabbed by: Ross McMillan
Email:ross_mcmillan_05@hotmail.com

1.	Blue Orchid
2.	The Nurse 
3.	My Doorbell
4.	Forever for her (is over for me)
5.	Little Ghost
6.	The Denial Twist
7.	White Moon
8.	Instinct Blues
9.	Passive Manipulation
10.	Take, Take, Take
11.	As Ugly As I Seem
12.	Red Rain
13.	I'm Lonely (but I ain't that lonely yet)

1. Blue Orchid

Intro:

e|---------------------------------------------------------------------------|
B|---------------------------------------------------------------------------|
G|---------------------------------------------------------------------------|
D|--------------------------------------3--5---------------------------------|
A|-------------1--------------1--3--5------------------1-----------1---------|
E|----3--1--3-----1--3--1--3-----------------3--1--3------1--1--3-----3--1---|

e|---------------------------------------------------------------------------|
B|---------------------------------------------------------------------------|
G|---------------------------------------------------------------------------|
D|--------------3--3h4h5-----------------------------------------------------|
A|-----1--3--5---------------------------------------------------------------|
E|--3------------------------------------------------------------------------|

VERSE 1:
G5          F5 G5   Bb5  F5
    You got a  re - ac - tion
G5          F5 G5   Bb5  C5    D5  F5* G5*
    You got a  re - ac - tion, did-n't you?
G5           F5 G5    Bb5  F5    F5 G5 Bb5
    You took a  white or - chid
G5           F5 G5    Bb5  C5    D5     F5* G5*
    You took a  white or - chid, turned it  blue
e|-----------------------------------------------------|
B|-----------------------------------------------------|
G|-7p5--------7p5-----------7p5------------------------|
D|-----8b---------8b-5----------8b---------------------|
A|--------8------------------------8--8--8--8-8-10-----|
E|-----------------------------------------------------|
                                                          G5
e|---------------------------------------------------------|
B|---------------------------------------------------------|
G|-7p5-----------7p5------------7-p-5----------------------|
D|-----8b------------8b—5—0-------------8b-----------------|
A|----------8-------------------------------8---8----8--8--|
E|---------------------------------------------------------|

That's it all.

====================================================================
====================================================================

2. The Nurse

Intro
e|-------------------------------------------------------------------|
B|-------------------------------------------------------------------|
G|-------------------------------------------------------------------|
D|-------------------------------------------------------------------|
A|-4-2-2/3/4/5/6/7/8/9/10/11/12/13/14-(basically as high as you can)-|
E|-------------------------------------------------------------------|

Guitar 1: Main Riff (the marimba)
e|-------------------------------------------|
B|-------------------------------------------|
G|-------------------------------------------|
D|-------------------------------------------|
A|-2--2-2-3-5-7--7-8-8-5-2--2-2-3-5--2-2-3-5-|
E|-------------------------------------------|

Guitar 2: Rhythm (the piano). Play at the point it shows.
e|-------------------------------------------|
B|-------------------------------------------|
G|-----------------------------2-------------|
D|-----------------------------2-2-----------|
A|------------------------2--2-0-2-2---------|
E|------------------------2--2---0-2---------|

Guitar 2: Second variation of rhythm
e|-------------------------------------------|
B|-------------------------------------------|
G|-------------------------------------------|
D|-----------------------------2-2-----------|
A|------------------------2--2-2-2-2---------|
E|------------------------2--2-0-0-2---------|

Guitar 2: Third rhythm
e|-------------------------------------------|
B|-------------------------------------------|
G|-------------------------------------------|
D|---------------------------2---------------|
A|------------------------2--2-2-------------|
E|------------------------2--0-2-------------|

Guitar 1: second riff
e|--------------------------------------------------------------|
B|--------------------------------------------------------------|
G|--------------------------------------------------------------|
D|--------------------------------------------------------------|
A|--2-2-2-2--3-3-3-3--5-5-5-5--3-3-3-2-then go back to rhythm---|
E|--------------------------------------------------------------|

Guitar 1: "no I'm never, no I'm never, no I'm never gonna let you down"
e|------------------------------------------|
B|------------------------------------------|
G|------------------------------------------|
D|------------------------------------------| Guitar 2 just plays:  x x x x x x x
A|-2--2-2-3-5--5-7-7-7--2--2-2-3-5--5-7-7-7-|                       x x x x x x x
E|------------------------------------------|                       x x x x x x x

Guitar 2: solo
e|---4b-4b-4b-4b-hold------4b-4b-5b-hold-------------------------------------|
B|---------------------------------------------------------------------------|
G|---------------------------------------------------------------------------|
D|---------------------------------------------------------------------------|
A|---------------------------------------------------------------------------|
E|---------------------------------------------------------------------------|

====================================================================
====================================================================

3. My Doorbell

CHORUS:
E N.C.                  A N.C.                   D N.C.
  I'm thinkin' about my doorbell, when you gonna ring it?
                 E N.C.  E E7
  When you gonna ring it?
E N.C.                        A N.C.                   D N.C.
  Yeah, I'm thinkin' about my doorbell, when you gonna ring it?
                 E N.C.  E E7
  When you gonna ring it?
E N.C.                        A N.C.                   D N.C.
  Yeah, I'm thinkin' about my doorbell, when you gonna ring it?
                 E N.C.  E E7
  When you gonna ring it?
E N.C.                           A N.C.   D N.C.
  Yeah, I been thinkin' about my doorbell
E     E   E7
  Oh, well

VERSE 1:
E N.C.            A N.C.
  Well, women and children and kisses
          D N.C.                 E E7
  Not the men in my life, I know
E N.C.                     A N.C.
  And I been caught in the midst of remissness
       D N.C.              E    E E7
  I respect the art of the show
E N.C.               A N.C.
  Take back what you said, little girl
                   D N.C.                    E   E E7
  And while you're at it, take yourself back too
E N.C.                D N.C.
  'Cause I'm tired of sittin' here, waitin'
            D                         E                 E  E7
  Wondering what you're gonna do now, what you're gonna do about it


CHORUS


BRIDGE:

   B5   D5 B5 A5   B5 D5 E
e|-----------------------0--|
B|------3-------------3--0--|
G|-4----2--4--2----4--2--1--|
D|-4----0--4--2----4--0--2--|
A|-2-------2--0----2-----2--|
E|-----------------------0--|

E                       B5    D5 E
You don't seem to come around
                          E       D5 B5   D5 B5 A5   B5 D5 E
Push your finger and make a sound
                        B5    D5 E
You don't seem to come around

Knock, knock, did you knock it down?

   D5 B5   D5   B5 A5   B5 A5 G5                  A5   E
e|-----------------------------------------------------0--|
B|-3-------3-3-----------------------------------------0--|
G|-2--4----2-2--4--2----4--2-------------(3)------2-2--1--|
D|-0--4----0-0--4--2----4--2--5--5--5--5--5--5--5-2-2--2--|
A|----2---------2--0----2--0--5--5--5--5--5--5--5-0-0--2--|
E|----------------------------3--3--3--3--3--3--3------0--|
                                                  Oh   yeah
N.C.
Make a sound, and I'll make you feel right
                    E N.C.  A N.C.  D N.C.
Right at home, yeah
      E N.C.              E N.C.  A N.C.  D N.C.  E N.C.
Yeah, right at home, yeah

VERSE 2:
You know you got me waitin' in pain
But how come it's so easy to you?
You don't strike me as the type to be callous
But your words seem so obtuse
But then again, I know you feel guilty
And you tell me you want me again
But I don't need any of your pity
I got plenty of my own friends, they're all above me

CHORUS:
And I been thinkin' about the doorbell, when they're gonna ring it
When they're gonna ring it
Yeah, I been thinkin' about the doorbell, when they're gonna ring it
When they're gonna ring it
Oh, I been thinkin' about the doorbell, when they're gonna ring it
When they're gonna ring it
Yeah, I been thinkin' about the doorbell
Oh, well

BRIDGE:
They don't seem to come around
Push the finger and make a sound
They don't seem to come around
[] they'll knock us down

N.C.
Make a sound, and I'll make you feel right
              E  A  D
Right at home
E                A  D  E
Right at home


CHORUS (Played 2x, fade out)

====================================================================
====================================================================

4. Forever For Her (is over for me)

capo 1

verse:
  E
I blew it 
	 A	       B
And if i knew what to do
	E
then id do it
	D	     A
but the point that i have 
	E
ill get to it
A	    B
forever for her
   E
is over for me

verse:
Forever just a word that she said that means never
To be with another together and with the weight of a feather it tore into me
then i knew it and all the work that it took to get through it 
on a wings of a feather that flew it
fell under my shoe and caught up into me

bridge:
     B		A	    E
well everybodys reaction is changing
      B		     A
but their love is only a fraction of what i can
B
give to you
	
chorus:
         E	     A	       B	     E	
So let's do it, just get on a plane and just do it
	 D		A	    E
Like the birds and the bees and get to it
	A	B	  E
Just get out of town and forever be free
         E	     A	       B	     E	
Forever, I wonder we could stay together
	 D		A	    E
It could change if you want for the better
	A	B	  E
Just turn down my shirt and lay down next to me

====================================================================
====================================================================

5. Little Ghost

A

       A
Little ghost, little ghost
	D	      A
One I'm scared of the most
	A			     E
Can you scare me up a little bit of love?
	A
I'm the only one that sees you,
       D		A
And I can't do much to please you
			 E		A
And it's not yet time to meet the lord above

====================================================================
====================================================================

6. The Denial Twist

CHORDS -

    C5 D#5  A#5   Bb5   G5
e   0   0    0     0    0
B   0   0    0     0    0
G   0   0    0     0    0
D   5   8    0     3    0
A   3   6    8     1    5
D   0   0    8     0    5


FILL

e-----
B-----
G-----
D-----
A-1h3-
D-----


VERSE

       C5                   D#5
If you think that a kiss is all in the lips
    A#5                 C5
cmon,   you got it all wrong man
           C5                       D#5
and if you think that our dance was all in the hips
   A#5               FILL
oh well, then do the twist


       C5                    D#5
If you think holdng hands is all in the fingers
     A#5                    C5 C5  C5    Bb5    C5
grab hold of the soul where memory lingers and
                   D#5
make sure to never do it with them fingers
           A#5                  C5 C5 C5 Bb5
cause I'll tell everyone in the world,   but he was


PRECHORUS

D#5      A#5       C5    C5 C5
thinking about the girl
            D#5      A#5       C5   C5 C5 Bb5   C5
ya but he's thinking about the girl,      oh


VERSE
                    D#5
a lot of people get confused and they bruise
     A#5                   C5   C5 C5 Bb5   C5
real easy when it comes to love
                           D#5
they start puttin on their shoes and walkin out
            A#5                  C5  C5 C5 Bb5   C5
and singing boy I think I had enough

                 D#5
just because she makes you feel wrong
          A#5                C5       C5 C5 Bb5      C5
she don't mean to be mean or hurt you on purpose boy
                      D#5
take a tip and do yourself a little service
       A#5                     C5  C5 C5  Bb5
take a mountain turn it into a mole,      just by


PRECHORUS

D#5      A#5       C5   C5 C5
playin a different role
      D#5      A#5       C5   C5 C5 Bb5
ya by playin a different role,       oh


CHORUS

G5
   the boat ya you know she's rockin it
Bb5
   and the truth well ya know there's no stoppin it

e----------------------------------------------------|
B----------------------------------------------------|
G----------------------------------------------------|
D----------------------------------------------------|
A-3-3-1-3-1---1h3-1h3---1h3-1h3-1---1h3-1---1h3--1---|
D-----------5---------------------5-------5--------3-|  (use pinky here)

G5
   the boat ya you know she's still rockin it
Bb5
   the truth well you know there's no stoppin it

e---------------------------|
B---------------------------|
G---------------------------|
D---------------------------|
A-1h3-1---------------------|
D-------3-1-1h3-1-3b5-1-3-1-|


VERSE

C5                       D#5
   So, so what, somebody left you in a rut
             A#5                     C5
and wants to be the one who's in control
        C5                            D#5
but the feeling that you're under can really make you wonder
        A#5                FILL
how the hell she can be so cold

C5                      D#5
   So now you're mad, denying the truth
         A#5                         C5      C5   C5    Bb5         C5
and it's gettin in the wisdom in the back of your tooth, ya need ta
                  D#5
spit it out, in a telephone booth
         A#5                     C5 C5 C5  Bb5
while ya call everyone that you know,      and ask 'em


PRECHORUS

D#5          A#5       C5   C5 C5
where do you think she goes
       D#5        A#5         C5   C5 C5 Bb5
oh ya, where d'ya suppose she goes,       oh


CHORUS

G5
   the truth well you know there's no stoppin it
Bb5
   and the boat well ya know she's still rockin it

   C5 C5                C5 C5    C5 C5 Bb5

G5
   the boat ya you know she's still rockin it
Bb5
   and the truth ya you know there's no stoppin it


e----------------------------------|
B----------------------------------|
G----------------------------------|
D----------------------------------|
A-3-------1-3-3p1--3b5b3~~~~~~~~~~-|
D---1-3-5--------------------------|


VERSE

C5                        D#5
  you recognize with your back in the back?
          A#5                       C5 C5 C5 Bb5
that it's colder when she rocks the boat,    but it's the
C5                  D#5
cause hittin on the Cardinal Laws?
          A#5                      C5  C5 C5 Bb5
'bout the proper place to hang her coat,

      C5       D#5
So to you, the truth is still hidden
        A#5                      C5   C5     C5     Bb5  C5
and the soul plays the role of a lost little kitten but
                         D#5
you should know that the dark is one kitten?
            A#5               C5 C5 C5 Bb5
she's been singing it all along,         but you were


OUTRO

D#5      A#5       C5   C5 C5
hearin a different song
            D#5      A#5       C5   C5 C5 Bb5
ya you were hearin a different song
             D#5      A#5       C5
but you were hearin a different song

====================================================================
====================================================================

7. White Moon

E-Esus4-E

E
White moon, white moon
A
Breaks open the tomb
   B			     E-Esus4-E
Of a deserted cartoon that I wrote
E
Creature come, creature, creature
A
My own double feature
B				E-Esus4-E
As I'm warming the bleachers at home

	 E	       G
Well, my nose keeps on bleeding
	    D	     F
'Cause it's rita I'm needing
	 Bb	    A		   B
I better call out a meeting of the boys
	E
Of the boys
E
My friends are all dying
A
And death can't be lying
B				   E-Esus4-E
It's the truth and it don't make a noise

====================================================================
====================================================================

8. Instinct Blues

e|-------10-10b11r10p8--|  (about 7 times)
B|-10-------------------|
G|----------------------|
D|----------------------|
A|----------------------|
E|----------------------|

e|--------|
B|--------|
G|--------|
D|--------|
A|--------|
E|--12\1--|


intro

e|--------------------------------|
B|--------------------------------|
G|----0h2-0-----------------------|
D|-----------2--0h2-0--0h2---0----|
A|-0-----------------------3---0--|
E|--------------------------------|

verse

e|---------------------------------------|  (x4)
B|---------------------------------------|
G|----0h2-0-0----------------------------|
D|---------------------------------------|
A|-0-------------5h7-5h7-5h7-5h7-5h7-5h7-|
E|---------------0---0---0---0---0---0---|

e|---------------------------------------|
B|---------------------------------------|
G|-----5h7--5~---------------------------|
D|-0-------------5h7-5h7-5h7-5h7-5h7-5h7-|
A|---------------0---0---0---0---0---0---|
E|---------------------------------------|

e|----------------------------------------|
B|--------------------------5-------------|
G|-----5h7--5~-----7--7--5-----5b---------|
D|-0--------------------------------------|
A|----------------------------------------|
E|----------------------------------------|

e|---------------------------------------|
B|---------------------------------------|
G|----0h2-0-0----------------------------|
D|---------------------------------------|
A|-0-------------5h7-5h7-5h7-5h7-5h7-5h7-|
E|---------------0---0---0---0---0---0---|

e|---------------------------------------|
B|---------------------------------------|
G|----0h2-0-0----------------------------|
D|---------------------------------------|
A|-0-------------5h7-5h7-5h7-5h7-5-3-----|
E|---------------0---0---0---0-----------|

====================================================================
====================================================================

9. Passive Manipulation

VERSE 1: Played 2x
 A                     C
 Women, listen to your mothers
               D                          A
 Don't just succomb to the wishes of your brothers
             A                         C
 Take a step back, take a look at one another
                      D                    A
 You need to know the difference between a father and a lover

 BRIDGE:
 A N.C. A* C N.C.
 Women,    listen to your mothers
 D N.C.                    A N.C.
 Don't just succomb to the wishes of your brothers
 A N.C.                   C N.c.
 Take a step back, take a look at one another
     D N.C.                      A
 You need to know the difference

====================================================================
====================================================================

10. Take, Take, Take

VERSE 1:
 G       Bb                     F
   I was sittin' there, I had a comfortable chair
                           G
   And that was all that I needed
 G                Bb           F
   Then my friend offered me a drink for us to share
                           G
   And that was all that I needed
         Bb5    C5      Bb5
   Well, then I felt at ease
                 D5      F5'     D5
   But then, I'm not too hard to please
               F5`     (F#5)    G
   I guess you couldn't call me greedy

 CHORUS:

 Played 2x:
 Rhythm: 1   +   2   +   3   +   4   +   1   +   2   +   3   +   4   +   1   +   2   +   
  +   4
 Chords: G5          G5  G5          Bb5 Bb5 F5  F5          Bb5 Bb5 F5  F5              
Bb5 F5


 G5  G5 G5   Bb5 Bb5 F5 F5   Bb5 Bb5 F5 F5    Bb5 Bb5 F5 G5
                        Take,           take,            take!

 G5 G5  Bb5 Bb5 F5 F5    Bb5 Bb5 F5 F5    Bb5 Bb5 F5 G5
                   Take,            take,            take!

 G5 G5  Bb5 Bb5 F5 F5    Bb5 Bb5 F5 F5    Bb5 Bb5 F5 G5
                   Take,            take,            take!

====================================================================
====================================================================

11. As Ugly As I Seem

Intro
e|---------------------------------------------------------------------------|
B|--3\2—-x-x--3-3\2-x-2------------------x-x--3-3\2-x-2----------------------|
G|--2-2--x-x--2-2-2-x-2--0-0-------------x-x--2-2-2-x-2--0-0-----------------|
D|--2-2--x-x--2-2-2-x-2---2----(2)-(2)---x-x--2-2-2-x-2---3----(3)-(3)-------|
A|---------------------------------------------------------------------------|
E|---------------------------------------------------------------------------|

e|---------------------------------------------------------------------------|
B|--x-x--3-3\2-x-0-----------------------------------------------------------|
G|--x-x--2-2-2-x-2--0-0------------------------------------------------------|
D|--x-x--2-2-2-x-2---2--------(play either soft of ghost notes here)---------|
A|---------------2-----------------------------------------------------------|
E|---------------------------------------------------------------------------|

Rhythm/Verses
     I...       am as ugly as I seem...
e|---------------------------------------------------------------------------|
B|----------2-------3\2--0--2--2---------------------------------------------|
G|------2-2---2-----2-2--0--2--2---------------------------------------------|
D|------------------2-2--0--2--2---------------------------------------------|
A|---------------------------------------------------------------------------|
E|---------------------------------------------------------------------------|
     Worse than all your dreams
e|--------------------------4------------------------------------------------|
B|----3\2-------------------0------------------------------------------------|
G|----2-2------0-0----------0----------2----2--------------------------------|
D|----2-2------0-0----------0------2-2---2-2---------------------------------|
A|--------------------------2------------------------------------------------|
E|--------------------------3------------------------------------------------|
       Could ever make me out to be
e|---------------------------------------------------------------------------|
B|-----------------2---------------------------------------------------------|
G|----2------------2---------------------------------------------------------|
D|-2-2-------------2---------------------------------------------------------|
A|---------------------------------------------------------------------------|
E|---------------------------------------------------------------------------|


|------------------------|------------------------|
|------------------------|------------------------|
|-------0--------0-----0-|-------0----------------|
|----2--------4-----4----|----2--------4----------| Play twice
|-3--------5-------------|-3--------5-----3--2--0-| 
|------------------------|------------------------|

====================================================================
====================================================================

12. Red Rain

INTRO:

 Guitar:
  E|-9-/-10-/-12--------12-/-14--15---15-15-/-17--15--------------|
 C#|--------------12\---------------------------------/17-/15(~)--|
  A|--------------------------------------------------------------|
  E|--------------------------------------------------------------|
  A|--------------------------------------------------------------|
  E|--------------------------------------------------------------|


 Bells: False harmonics
  E|-9*--10*--12*--9*---12*--14*--15*---15*--15*---17*---15*---14*----12*--|
 C#|-----------------------------------------------------------------------|
  A|-----------------------------------------------------------------------|
  E|-----------------------------------------------------------------------|
  A|-----------------------------------------------------------------------|
  E|-----------------------------------------------------------------------|
                       (Can  you  hear  me   cal - lin'  your  name,  girl?)


 Played together:

 Guitar:
  E|-9-/-10-/-12--------12-/-14--15---15-15-/-17--15------------------------|
 C#|--------------12\---------------------------------/17-/15---10-/-12-----|
  A|--------------------------------------------------------------------12--|
  E|------------------------------------------------------------------------|
  A|------------------------------------------------------------------------|
  E|------------------------------------------------------------------------|

 Bells: False harmonics
  E|-9*--10*--12*-9*----12*--14*-15*--15*-15*-17*-15*--14*-12*--|
 C#|------------------------------------------------------------|
  A|------------------------------------------------------------|
  E|------------------------------------------------------------|
  A|------------------------------------------------------------|
  E|------------------------------------------------------------|


 VERSE 1:
                                                                           A
  E|-----------------------------------------------------------------------0-0-0--|
 C#|----------------------------------12--12----------10/12\-10------(\)---0-0-0--|
  A|--------------12\--------10-/-12------------------------------12-(\)---0-0-0--|
  E|-9-/-10-/-12-------(0)-------------------------------------------(\)---0-0-0--|
  A|-----------------------------------------------------------------(\)---0-0-0--|
  E|------------------------------------------------------------------------------|
    (I   am   standin',               standin' in the red,   red, rain)
                                                                           A
  E|-----------------------------------------------------------------------0-0-0--|
 C#|----------------------------------12--12----------10/12\-10------(\)---0-0-0--|
  A|-------------12\---------10-/-12------------------------------12-(\)---0-0-0--|
  E|-9-/-10-/-12-------(0)-------------------------------------------(\)---0-0-0--|
  A|-----------------------------------------------------------------(\)---0-0-0--|
  E|------------------------------------------------------------------------------|
    (In  the  mornin',                standin' in the red,   red rain)

               A12  A   A12  B14  C15        D17  C15  B14   A12   A
  E|-----------12---0---12-/-14-/-15---15-15/17---15---14----12\---0-0-0--|
 C#|-----------12---0---12-/-14-/-15---15-15/17---15---14----12\---0-0-0--|
  A|-----------12---0---12-/-14-/-15---15-15/17---15---14----12\---0-0-0--|
  E|-----------12---0---12-/-14-/-15---15-15/17---15---14----12\---0-0-0--|
  A|-----------12---0---12-/-14-/-15---15-15/17---15---14----12\---0-0-0--|
  E|----------------------------------------------------------------------|
     Can't you hear me? Can  you  hear me callin' your name, girl?

               A12 A     A12   B14 C15             D17  C15  B14   A12   A
  E|-----------12--0-----12-/--14-/15--15---15-15-/17---15---14----12\---0-0-0--|
 C#|-----------12--0-----12-/--14-/15--15---15-15-/17---15---14----12\---0-0-0--|
  A|-----------12--0-----12-/--14-/15--15---15-15-/17---15---14----12\---0-0-0--|
  E|-----------12--0-----12-/--14-/15--15---15-15-/17---15---14----12\---0-0-0--|
  A|-----------12--0-----12-/--14-/15--15---15-15-/17---15---14----12\---0-0-0--|
  E|----------------------------------------------------------------------------|
     In the    mor-nin', while I'm standin' in the red, red, rain, girl

  E|----------------------------------------------------------------0-0-0--|
 C#|----------------------------------12--12-10-/-12\--10-----(\)---0-0-0--|
  A|--------------12\--------10-/-12-----------------------12-(\)---0-0-0--|
  E|-9-/-10-/-12-------(0)------------------------------------(\)---0-0-0--|
  A|----------------------------------------------------------(\)---0-0-0--|
  E|-----------------------------------------------------------------------|

  E|-----------------------------------------------------------------------0-0-0--|
 C#|----------------------------------12--12----------10/12\-10------(\)---0-0-0--|
  A|-------------12\---------10-/-12------------------------------12-(\)---0-0-0--|
  E|-9-/-10-/-12-------(0)-------------------------------------------(\)---0-0-0--|
  A|-----------------------------------------------------------------(\)---0-0-0--|
  E|------------------------------------------------------------------------------|
    (In  the  mornin',                standin' in the red,   red rain)

               A12  A   A12   B14  C15        D17  C15  B14   A12   A
  E|-----------12---0---12-/--14-/-15---15-15/17---15---14----12\---0-0-0--|
 C#|-----------12---0---12-/--14-/-15---15-15/17---15---14----12\---0-0-0--|
  A|-----------12---0---12-/--14-/-15---15-15/17---15---14----12\---0-0-0--|
  E|-----------12---0---12-/--14-/-15---15-15/17---15---14----12\---0-0-0--|
  A|-----------12---0---12-/--14-/-15---15-15/17---15---14----12\---0-0-0--|
  E|-----------------------------------------------------------------------|
     Can't you hear me? Can't you  hear me callin' your name, girl?

               A12 A     A12   B14 C15             D17  C15  B14   A12   A      A12
  E|-----------12--0-----12-/--14-/15--15---15-15-/17---15---14----12\---0-0-0--12\--|
 C#|-----------12--0-----12-/--14-/15--15---15-15-/17---15---14----12\---0-0-0--12\--|
  A|-----------12--0-----12-/--14-/15--15---15-15-/17---15---14----12\---0-0-0--12\--|
  E|-----------12--0-----12-/--14-/15--15---15-15-/17---15---14----12\---0-0-0--12\--|
  A|-----------12--0-----12-/--14-/15--15---15-15-/17---15---14----12\---0-0-0--12\--|
  E|---------------------------------------------------------------------------------|
     In the    mor-nin', while I'm standin' in the red, red, rain, girl

         D                        F              C          A            C B A C B A
  E|--------------------------------------------------------0---0--0-0---3\2\0-3\2\0--|
 C#|---------------5-----------------------8----------------0---0--0-0---3\2\0-3\2\0--|
  A|----/5-----5------5----5--5---5--/--8------8\3----3--/--0---0--0-0---3\2\0-3\2\0--|
  E|----/5------------------------5--/--8------8\3----3--/--0---0--0-0---3\2\0-3\2\0--|
  A|----/5-------------------------------------8\3----3--/--0---0--0-0---3\2\0-3\2\0--|
  E|----------------------------------------------------------------------------------|
     You think not tellin' is the same  as not lyin', don't you?

         D                        F                C       A       C B A C B A  A7
  E|-------------------------------------------------------0---0---3\2\0-3\2\0-(3)-(3)-|
 C#|---------------5---------------------------------------0---0---3\2\0-3\2\0--0---0--|
  A|----/5-----5------5----5--5---5--/--8--8----8\-3---3-/-0---0---3\2\0-3\2\0--0------|
  E|----/5------------------------5--/--8--8----8\-3---3-/-0---0---3\2\0-3\2\0--0------|
  A|----/5--------------------------------------8\-3---3-/-0---0---3\2\0-3\2\0--0------|
  E|-----------------------------------------------------------------------------------|
  Then I guess not feelin' is the same  as not  cryin' to  you

     C   D                        F              C          A            C   B A
  E|--------------------------------------------------------0---0--0-0---3-3\2\0--|
 C#|---------------5-----------------------8----------------0---0--0-0---3-3\2\0--|
  A|-3--/5-----5------5----5--5---5--/--8------8\3----3--/--0---0--0-0---3-3\2\0--|
  E|-3--/5------------------------5--/--8------8\3----3--/--0---0--0-0---3-3\2\0--|
  A|-3--/5-------------------------------------8\3----3--/--0---0--0-0---3-3\2\0--|
  E|------------------------------------------------------------------------------|
     You think not tellin' is the same  as not lyin', don't you?

         D                        F                C       A       C B A
  E|-------------------------------------------------------0---0---3\2\0--0-0--|
 C#|---------------5---------------------------------------0---0---3\2\0--0-0--|
  A|----/5-----5------5----5--5---5--/--8--8----8\-3---3-/-0---0---3\2\0--0-0--|
  E|----/5------------------------5--/--8--8----8\-3---3-/-0---0---3\2\0--0-0--|
  A|----/5--------------------------------------8\-3---3-/-0---0---3\2\0--0-0--|
  E|---------------------------------------------------------------------------|
  Then I guess not feelin' is the same  as not  cryin' to  you


 CHORUS:
     E   D   C  A      F#  G    A12 A      A12  B14  C15  A      E   D   C    A
  E|-7-\-5\--3--0--0---9-/-10-/-12--0--0---12-/-14/--15---0--0---7-\-5\--3----0--0--|
 C#|-7-\-5\--3--0--0---9-/-10-/-12--0--0---12-/-14/--15---0--0---7-\-5\--3----0--0--|
  A|-7-\-5\--3--0--0---9-/-10-/-12--0--0---12-/-14/--15---0--0---7-\-5\--3----0--0--|
  E|-7-\-5\--3--0--0---9-/-10-/-12--0--0---12-/-14/--15---0--0---7-\-5\--3----0--0--|
  A|-7-\-5\--3--0--0---9-/-10-/-12--0--0---12-/-14/--15---0--0---7-\-5\--3----0--0--|
  E|--------------------------------------------------------------------------------|
 					  In   the  red!        In  the rain!

     E   D   C    A      F#  G    A12 A      A12  B14  C15  A      E   D   C    A
  E|-7-\-5\--3----0--0---9-/-10-/-12--0--0---12-/-14/--15---0--0---7-\-5\--3----0--0--|
 C#|-7-\-5\--3----0--0---9-/-10-/-12--0--0---12-/-14/--15---0--0---7-\-5\--3----0--0--|
  A|-7-\-5\--3----0--0---9-/-10-/-12--0--0---12-/-14/--15---0--0---7-\-5\--3----0--0--|
  E|-7-\-5\--3----0--0---9-/-10-/-12--0--0---12-/-14/--15---0--0---7-\-5\--3----0--0--|
  A|-7-\-5\--3----0--0---9-/-10-/-12--0--0---12-/-14/--15---0--0---7-\-5\--3----0--0--|
  E|----------------------------------------------------------------------------------|
     In  the rain!       In  the  red!	    In   the  red!        In  the rain!

     E   D   C    A      F#  G    A12 A      A12  B14  C15  A      E   D   C    A
  E|-7-\-5\--3----0--0---9-/-10-/-12--0--0---12-/-14/--15---0--0---7-\-5\--3----0--0--|
 C#|-7-\-5\--3----0--0---9-/-10-/-12--0--0---12-/-14/--15---0--0---7-\-5\--3----0--0--|
  A|-7-\-5\--3----0--0---9-/-10-/-12--0--0---12-/-14/--15---0--0---7-\-5\--3----0--0--|
  E|-7-\-5\--3----0--0---9-/-10-/-12--0--0---12-/-14/--15---0--0---7-\-5\--3----0--0--|
  A|-7-\-5\--3----0--0---9-/-10-/-12--0--0---12-/-14/--15---0--0---7-\-5\--3----0--0--|
  E|----------------------------------------------------------------------------------|
     In  the rain!       In  the  red!	    In   the  red!        In  the rain!


     E   D   C    A      F#  G    A12 A      A12  B14  C15  A      E   D   C    A
  E|-7-\-5\--3----0--0---9-/-10-/-12--0--0---12-/-14/--15---0--0---7-\-5\--3----0--0--|
 C#|-7-\-5\--3----0--0---9-/-10-/-12--0--0---12-/-14/--15---0--0---7-\-5\--3----0--0--|
  A|-7-\-5\--3----0--0---9-/-10-/-12--0--0---12-/-14/--15---0--0---7-\-5\--3----0--0--|
  E|-7-\-5\--3----0--0---9-/-10-/-12--0--0---12-/-14/--15---0--0---7-\-5\--3----0--0--|
  A|-7-\-5\--3----0--0---9-/-10-/-12--0--0---12-/-14/--15---0--0---7-\-5\--3----0--0--|
  E|----------------------------------------------------------------------------------|
     In  the rain!       In  the  red!	    In   the  red!        In  the rain!

     E   D   C    A
  E|-7-\-5\--3----0--0--|
 C#|-7-\-5\--3----0--0--|
  A|-7-\-5\--3----0--0--|
  E|-7-\-5\--3----0--0--|
  A|-7-\-5\--3----0--0--|
  E|--------------------|
     In  the rain!


 BRIDGE: Guitar and Bells play simultaneously

 Guitar:
    C A    E
 E|(3p0)--/7----------------------------------------------------------------------------------7---|
C#|(3p0)--/7---7---7---7---7---7-\-5-\-3--/5-/-7---7---7---7---7---7---7---7-\-5-\-3--/5-/-7-----7|
 A|(3p0)--/7------------------------------------------(~~~~~~~~~~~~~~~~~)-------------------------|
 E|(3p0)--/7------------------------------------------(~~~~~~~~~~~~~~~~~)-------------------------|
 A|(3p0)--/7--------------------------------------------------------------------------------------|
 E|-----------------------------------------------------------------------------------------------|

Bells:
 E|--------------------7*-----|
C#|-7*--5*--3*--5*--7*----7*------|
 A|-------------------------------|
 E|-------------------------------|
 A|-------------------------------|
 E|-------------------------------|

 Guitar:
  E|----------------------------------------------------------7-----|
 C#|--7-\-5--\--3--/5-/-7---7---7---7----7--\--5-\-3--/5-/-7-----7--|
  A|----------------------------------------------------------------|
  E|----------------------------------------------------------------|
  A|----------------------------------------------------------------|
  E|----------------------------------------------------------------|
      If  there is  a   lie,        then there is  a   liar   too

 Bells:
  E|----------------------------------------------------------7*-----|
 C#|--7*--5*----3*--5*--7*--7*------7*---7*----5*--3*--5*--7*----7*--|
  A|-----------------------------------------------------------------|
  E|-----------------------------------------------------------------|
  A|-----------------------------------------------------------------|
  E|-----------------------------------------------------------------|


 Guitar:
                                         E     D   C   D   E
  E|------------------------7---------------------------------7-----|
 C#|--7-\-5--\--3--/5-/-7---7---7---7----7--\--5-\-3--/5-/-7--7--7--|
  A|----------------------------7---7----7--\--5-\-3--/5-/-7-----7--|
  E|--------------------------------7----7--\--5-\-3--/5-/-7--------|
  A|----------------------------------------------------------------|
  E|----------------------------------------------------------------|
 And if   there is  a   sin,        then there is  a   sinner too

 Bells:
  E|----------------------------------------------------------7*-----|
 C#|--7*--5*----3*--5*--7*--7*------7*---7*----5*--3*--5*--7*----7*--|
  A|-----------------------------------------------------------------|
  E|-----------------------------------------------------------------|
  A|-----------------------------------------------------------------|
  E|-----------------------------------------------------------------|


 Guitar:
                                         E     D   C   D   E
  E|------------------------7---------------------------------7-----|
 C#|--7-\-5--\--3--/5-/-7---7---7---7----7--\--5-\-3--/5-/-7--7--7--|
  A|--7-\-5--\--3--/5-/-7-------7---7----7--\--5-\-3--/5-/-7-----7--|
  E|--7-\-5--\--3--/5-/-7-----------7----7--\--5-\-3--/5-/-7--------|
  A|----------------------------------------------------------------|
  E|----------------------------------------------------------------|
  And if  there is  a   lie,        then there is  a   liar   too

 Bells:
  E|----------------------------------------------------------7*-----|
 C#|--7*--5*----3*--5*--7*--7*------7*---7*----5*--3*--5*--7*----7*--|
  A|-----------------------------------------------------------------|
  E|-----------------------------------------------------------------|
  A|-----------------------------------------------------------------|
  E|-----------------------------------------------------------------|


 Guitar:
      E   D     C   D   E   E5                         C5 A5
  E|-------------------------------------------------------------|
 C#|--7-\-5--\--3--/5-/-7----------------------------------------|
  A|--7-\-5--\--3--/5-/-7---7---7---7----7-----7---7---3--0---0--|
  E|--7-\-5--\--3--/5-/-7---7---7---7----7-----7---7---3--0---0--|
  A|--7-\-5--\--3--/5-/-7---7---7---7----7-----7---7---3--0---0--|
  E|-------------------------------------------------------------|
 And if   there is  a   sin,        then there is  a   sinner too!

 Bells:
  E|-------------------------------------------------------------|
 C#|--7*--5*----3*--5*--7*--7*-7*---7*---7*----7*--7*--7*--------|
  A|-------------------------------------------------------------|
  E|-------------------------------------------------------------|
  A|-------------------------------------------------------------|
  E|-------------------------------------------------------------|


 CHORUS:
 In the red! In the red!
 In the rain! In the rain!
 In the red! In the red!
 In the rain! In the rain!
 In the red! In the red!
 In the rain! In the rain!


 Played 2x:
     F#  G    A12  A N.C. A12  B14  C15  A N.C. E   D   C   A N.c. E   D   C   A N.C.
  E|-9-/-10-/-12---0------12-/-14/--15---0------7-\-5\--3---0------7-\-5\--3---0--|
 C#|-9-/-10-/-12---0------12-/-14/--15---0------7-\-5\--3---0------7-\-5\--3---0--|
  A|-9-/-10-/-12---0------12-/-14/--15---0------7-\-5\--3---0------7-\-5\--3---0--|
  E|-9-/-10-/-12---0------12-/-14/--15---0------7-\-5\--3---0------7-\-5\--3---0--|
  A|-9-/-10-/-12---0------12-/-14/--15---0------7-\-5\--3---0------7-\-5\--3---0--|
  E|------------------------------------------------------------------------------|


 In the red! In the red!
 In the rain! In the rain!
 In the red! In the red!
 In the rain! In the rain!

     A  C     A
  E|-------------0--|
 C#|-0--3--3--0-----|
  A|-0--3--3--0-----|
  E|-0--3--3--0-----|
  A|-0--3--3--0-----|
  E|----------------|


 Bells:
  E|-9*----10*--12*--9*---12*---14*--15*---15*--15*---17*---15*---14*----12*--|
 C#|--------------------------------------------------------------------------|
  A|--------------------------------------------------------------------------|
  E|--------------------------------------------------------------------------|
  A|--------------------------------------------------------------------------|
  E|--------------------------------------------------------------------------|
     Don't you  hear me?  Can't you  hear  me   cal - lin'  your  name,  girl?


 Guitar:
  E|-------------|
 C#|-10-/-12(~)--|
  A|-10-/-12(~)--|
  E|-10-/-12(~)--|
  A|-------------|
  E|-------------|

====================================================================
====================================================================

13. I'm Lonely (but I ain't that Lonely yet)

recurring riff: C-Csus4-C

verse:
C				F	C
well i miss my mother, i miss bein her son
C			G7
as crazy as i was, i guess i wasnt much fun
C				     F		      C
sometimes i miss her so much i wanna hop on the next jet
C		 G			C
and i get lonely but i aint that lonely yet

bridge:
F
And i love my sister
C
Lord knows how ive missed her
F				 G
She loves me and she know i wont repent
C			F		C
SOmetimes i get jealous over her little pet
C		 G			C
And i get lonely but i aint that konely yet
comments
print report bad tab
7 comments total. Showing first comments.
0 reply
monkeysims wrote on August 4 2005, 12:00 am

some of these tabs are of BrokenBricks.com, anywho good tab!!!

0 reply
mrt577 wrote on August 26 2005, 12:00 am

You've taken tabs done entirely by others and passed them off as your own. Excellent work @ssface...

0 reply
a_rush_of_blood wrote on December 1 2005, 03:54 am

yeah ****face broken bricks is the best ws tab site on the net and you have butchered it. get stuffed.

I want to post or [tab]
guest
You may want to rate the tab now too:
select rating
Please do not post tabs as comments. Select "correction" instead!