Oops, an error
Loading. Please wait.

Get Behind Me Satan Tab

ver2
ver2

Album

More versions @911Tabs.com
4,487 views 3 this week
2 commentsread comments
1 2 3 4 5
worth learning
x 2
Autoscroll
+/-
esc
set tempo
stop
Contributor
Difficulty
intermediate
Hey! There's an official Ultimate Guitar app which is ideal
for learning songs when you're away from computer. Get the app
WARNING: You are trying to view
                                    content from Ultimate-Guitar.com
                                    in an unauthorized application,
                                    which is prohibited.

                                    Please use an official Ultimate
                                    Guitar Tabs application for iPhone,
                                    iPad or Android to access legitimate
                                    chords, guitar, bass, and drum tabs
                                    from Ultimate-Guitar.com database.

                                    Type "ultimate guitar tabs" in Apple
                                    App Store's or Android Market's
                                    search to find the application.
BLUE ORCHID

INTRO:

With Whammy:
   G    F  G  Bb  F     G    F  G  Bb  C   D   F*  G*  G     F  G  Bb  F   F G Bb G    F  G   Bb  C
e|--------------------------------------------------------------------------------------------------|
B|--------------------------------------------------------------------------------------------------|
G|--------------------------------------------------------------------------------------------------|
D|---------------------------------------------3---5------------------------------------------------|
A|------------1--------------------1---3---5-----------------------1-----------1--------------1---3-|
E|-3----1--3------1-----3----1--3----------------------3(/)--1--3------1---1h3----3----1--3---------|

   D   F*  D F G*
e|----------------|
B|----------------|
G|----------------|
D|-----3-----3-5--|
A|-5-------5------|
E|----------------|


Without Whammy:
   G5   F5 G5 Bb5 F5    G5   F5 G5 Bb5 C5  D5  F5* G5* G5    F5 G5 Bb5 F5              F5 G5  Bb5 C5
e|---------------------------------------------------------------------------------------------------|
B|---------------------------------------------------------------------------------------------------|
G|---------------------------------------------5---7-------------------------------------------------|
D|------------3--------------------3---5---7---3---5----------------3-----------3-------------3---5--|
A|-5----3--5--1---3-----5----3--5--1---3---5-----------5(/)---3--5--1---3---3-5-1-5----3--5---1---3--|
E|-3----1--3------1-----3----1--3----------------------3(/)---1--3------1---1-3---3----1--3----------|
                                    (F5-G5-Bb5-------------------------------------------------------|G5)
   D5  F5*
e|-----------------|
B|-----------------|
G|-----5------5-7--|
D|-7---3----7-3-5--|
A|-5--------5------|
E|-----------------|
         (D5-F5*-G5*)


VERSE 1:
G           F  G    Bb   F
    You got a  re - ac - tion
G           F  G    Bb   C     D   F*  G*
    You got a  re - ac - tion, did-n't you?
G            F  G     Bb   F     F G Bb
    You took a  white or - chid
G            F  G     Bb   C         D      F*  G*
    You took a  white or - chid, and turned it  blue

VERSE 2:
Somethin' better than nothin'
Somethin' better than nothin' is givin' up
We all need to do somethin'
Try (to) keep the truth from showin' up

G

CHORUS:

e|----------------------------------------------------------|
B|----------------------------------------------------------|
G|-b7-r5-3-----------b7r5-3-----b7--r5--3-------------------|
D|------------3-------------5---------------3---3----3-3-5--|
A|----------------------------------------------------------|
E|----------------------------------------------------------|
   Ho-w  dare you?              How old are you now, any-way?

                             (8~)
e|----------------------------------------------------------|
B|----------------------------------------------------------|
G|-b7-r5-3-----------b7r5-3-----b7--r5--3-------------------|
D|------------3-------------5---------------3---3----3-3-5--|
A|----------------------------------------------------------|
E|----------------------------------------------------------|
   Ho-w  dare you?              How old are you now, any-way?

            (8~)                                    (8~)
e|---------------------------------------------------|
B|---------------------------------------------------|
G|-b7r5-3---------b7r5-3-----b7r5-3------------------|
D|--------3--------------5-----------3--3--3--3-3-5--|
A|---------------------------------------------------|
E|---------------------------------------------------|

                (8~)
e|----------------------------------------------------------|
B|----------------------------------------------------------|
G|-b7-r5--3----------b7r5-3-----b7--r5---3------------------|
D|------------3-------------5---------------3---3----3-3-5--|
A|----------------------------------------------------------|
E|----------------------------------------------------------|
   Ho-w  dare you?              How old are you now, any-way?

INTRO

(Right Channel, beginning of INTRO)
  (8~)
e|-(3-3--3-3)--|
B|-------------|
G|-------------|
D|-------------|
A|-------------|
E|-------------|

VERSE 3:
You were given a flower
But I guess there was just no pleasin' you
Your lip tastes sour
But you think that it's just me teasin' you

VERSE 1

CHORUS:
Get behind me
Get behind me now, anyway
Get behind me
Get behind me now, anyway


Note: Although Jack White plays the second chorus the following way live, one could also push the
Whammy pedal forward to the high octave doubling setting, and play the riff from the first chorus.

e|-b10r8-6------b10r8-6------b10r8-6------------------|
B|---------6------------8~-----------6--6--6--6-6-8~--|
G|----------------------------------------------------|
D|----------------------------------------------------|
A|----------------------------------------------------|
E|----------------------------------------------------|

e|-b10-r8-6---------b10r8-6------b10-r8-6-------------------|
B|-------------6------------8~---------------6--6----6-6----|
G|----------------------------------------------------------|
D|----------------------------------------------------------|
A|----------------------------------------------------------|
E|-------------------------------------------------------3--|
   Get be-hind me                Get be-hind me now, any-way

__________________________________________________________________

THE NURSE

Marimba:
T: G        C                               G            C   D   G            C       G
P: G   /b   C       G/d C/e      Csus4      G       /b   C   G/d G            C   G/d
e|----------------------0----0---1---1--1---3--------------------------------------------|
B|-0----0---1---1---3---1----1---1---1--1---3----0---0---1---3---0----0---0---1---3---0--|
G|-0----0---0---0---0----------------------------0---0---0---0--------0---0---0---0------|
D|------------------0---2----2---3---3--3--------------------0--------------------0------|
A|------2---3---3------------------------------------2---3--------------------3----------|
E|-3----------------------------------------3----3---------------3----3---3-----------3--|

                                         Piano:
                                            G        C     D     G
                                         e|-------------------------|
                                         B|-0--------1-----2-----0--|
                                         G|-0--------0-----3-----0--|
                                         D|-0--------2-----0-----0--|
                                         A|-2--------3-----------2--|
                                         E|-3--------------------3--|

    (Ahhhhhhhhhhhhhhhhh)

VERSE 1:
    G     G      G  /b  C   G/d     C/e  Csus4 Csus4 Csus4 G      G G  /b C G   G G  (X~)
The nurse should not be the one who puts salt  in    your  wounds
/b  C    G      G    G    /b    C   G/d    C/e Csus4 Csus4 Csus4 G     G G  /b C G   G G
But it's always with trust that the poison is  fed   with  a     spoon

   G/b  C      Bb                      Eb5          D5           G                        (X~)
e|---------------------------------------------------------------------------------------|
B|-0----1----------3----3-------3---3--4----4---4---3----3--3---------------0--0---------|
G|-0----0----------3----3-------3---3--3----3---3---2----2--2----0---0--0---0--0---0--0--|
D|-------------------------------------1----1---1---0----0--0----------------------------|
A|-2----3------1-------------1-----------------------------------------------------------|
E|---------------------------------------------------------------3---3--3---3--3---3--3--|
   When you're helpless with no one to turn to, a - lone in your room


VERSE 2:
                                                                        (X~)
You would swear that the one who would care for you never would leave
						               (X~)  (X~)  (X~)
She promised and said, "You will always be safe here with me"
                                               (X~)
But promises open the door to be broken to me

Played 2x: (X~) (X~) (X~) (X~) (X~) (X~) (X~) (X~)

CHORUS: P.M. G5 increases throughout

Played 2x:
        G             /b  C        G/d          C/e Csus4   G           /b  C  G/d C/e Csus4
e|----------------------------------------------0---1---1---3----------------------0---1--|
B|------0----------0---0--1--------3------------1---1---1------------0---0--1--3---1---1--|
G|------0----------0---0--0--------0---------------------------------0---0--0--0----------|
D|---------------------------------0------------2---3---3----------------------0---2---3--|
A|---------------------2--3----------------------------------------------2--3-------------|
E|------3----------3----------------------------------------3--------3--------------------|
No, I'm never, no, I'm ne-ver, no, I'm never gonna  let you down now

   Csus4  G            /b  C        G/d          C/e Csus4   G      /b  C  G/d C/e Csus4
e|-1---------------------------------------------0---1---1---3-----------------0---1----|
B|-1------0---------0---0--1--------3------------1---1---1-------0---0--1--3---1---1----|
G|--------0---------0---0--0--------0----------------------------0---0--0--0------------|
D|-3--------------------------------0------------2---3---3-----------------0---2---3----|
A|----------------------2--3-----------------------------------------2--3---------------|
E|--------3---------3----------------------------------------3---3----------------------|
   No I'm never, no I'm never, no I'm never gonna let you down


G5  (X~) (X~) (X~)
Bb Eb5  D5   G

BREAK: Guitar and Marimba played simultaneously:

Marimba:
   G   /b   C       G/d C/e      Csus4      G       /b  C   G/d G            C   G/d
e|----------------------0----0---1---1--1---3--------------------------------------------|
B|-0----0---1---1---3---1----1---1---1--1---3----0---0---1---3---0----0---0---1---3---0--|
G|-0----0---0---0---0----------------------------0---0---0---0--------0---0---0---0------|
D|------------------0---2----2---3---3--3--------------------0--------------------0------|
A|------2---3---3------------------------------------2---3--------------------3----------|
E|-3----------------------------------------3----3---------------3----3---3-----------3--|
                                           (Ahhhhhhhhhhhhhhhhh)
Guitar:
e|-----------------------------------------------------------------8b-8b--8b9-8b10-------|
B|---------------------------------------------------------------------------------------|
G|---------------------------------------------------------------------------------------|
D|---------------------------------------------------------------------------------------|
A|---------------------------------------------------------------------------------------|
E|---------------------------------------------------------------------------------------|


Marimba:
   G       /b   C   G/d C/e      Csus4      G       /b   C   G/d G            C   G/d
e|----------------------0----0---1---1--1---3--------------------------------------------|
B|-0----0-------1---3---1----1---1---1--1---3----0---0---1---3---0----0---0---1---3---0--|
G|-0----0---0---0---0----------------------------0---0---0---0--------0---0---0---0------|
D|------------------0---2----2---3---3--3--------------------0--------------------0------|
A|----------2---3------------------------------------2---3--------------------3----------|
E|-3----3-----------------------------------3----3---------------3----3---3-----------3--|
           (Ahhhhhhhhhhhhhhhhh)
Guitar:
e|-----------------------------------------------------8b---8b9---9b10-------------------|
B|---------------------------------------------------------------------------------------|
G|---------------------------------------------------------------------------------------|
D|---------------------------------------------------------------------------------------|
A|---------------------------------------------------------------------------------------|
E|---------------------------------------------------------------------------------------|


VERSE 2:
						         (X~)
The maid that you've hired could never conspire to kill

She's to mother, not quietly smother you when you're most ill
                                                            (X~)
The one that you're trusting suspiciously dusting the sill


MY DOORBELL

CHORUS:
E N.C.                  A N.C.                   D N.C.
  I'm thinkin' about my doorbell, when you gonna ring it?
                 E N.C.  E E7
  When you gonna ring it?
E N.C.                        A N.C.                   D N.C.
  Yeah, I'm thinkin' about my doorbell, when you gonna ring it?
                 E N.C.  E E7
  When you gonna ring it?
E N.C.                        A N.C.                   D N.C.
  Yeah, I'm thinkin' about my doorbell, when you gonna ring it?
                 E N.C.  E E7
  When you gonna ring it?
E N.C.                           A N.C.   D N.C.
  Yeah, I been thinkin' about my doorbell
E     E   E7
  Oh, well

VERSE 1:
E N.C.            A N.C.
  Well, women and children and kisses
          D N.C.                 E E7
  Not the men in my life, I know
E N.C.                 A N.C.
  And I been callin' a Mister a Misses
       D N.C.              E    E E7
  I respect the art of the show
E N.C.               A N.C.
  Take back what you said, little girl
                   D N.C.                    E   E E7
  And while you're at it, take yourself back too
E N.C.                D N.C.
  'Cause I'm tired of sittin' here, waitin'
            D                         E                 E  E7
  Wondering what you're gonna do now, what you're gonna do about it


CHORUS


BRIDGE:

   B5   D5 B5 A5   B5 D5 E
e|-----------------------0--|
B|------3-------------3--0--|
G|-4----2--4--2----4--2--1--|
D|-4----0--4--2----4--0--2--|
A|-2-------2--0----2-----2--|
E|-----------------------0--|

E                       B5    D5 E
You don't seem to come around
                          E       D5 B5   D5 B5 A5   B5 D5 E
Push your finger and make a sound
                        B5    D5 E
You don't seem to come around

Knock, knock, did you knock it down?

   D5 B5   D5   B5 A5   B5 A5 G5                  A5   E
e|-----------------------------------------------------0--|
B|-3-------3-3-----------------------------------------0--|
G|-2--4----2-2--4--2----4--2-------------(3)------2-2--1--|
D|-0--4----0-0--4--2----4--2--5--5--5--5--5--5--5-2-2--2--|
A|----2---------2--0----2--0--5--5--5--5--5--5--5-0-0--2--|
E|----------------------------3--3--3--3--3--3--3------0--|
                                                  Oh   yeah
N.C.
Make a sound, and I'll make you feel right
                    E N.C.  A N.C.  D N.C.
Right at home, yeah
      E N.C.              E N.C.  A N.C.  D N.C.  E N.C.
Yeah, right at home, yeah

VERSE 2:
You know you got me waitin' in pain
But how come it's so easy to you?
You don't strike me as the type to be callous
But your words seem so obtuse
But then again, I know you feel guilty
And you tell me you want me again
But I don't need any of your pity
I got plenty of my own friends, they're all above me

CHORUS:
And I been thinkin' about the doorbell, when they're gonna ring it
When they're gonna ring it
Yeah, I been thinkin' about the doorbell, when they're gonna ring it
When they're gonna ring it
Oh, I been thinkin' about the doorbell, when they're gonna ring it
When they're gonna ring it
Yeah, I been thinkin' about the doorbell
Oh, well

BRIDGE:
They don't seem to come around
Push the finger and make a sound
They don't seem to come around
Paint it green, they'll knock it down

N.C.
Make a sound, and I'll make you feel right
              E  A  D
Right at home
E                A  D  E
Right at home


FOREVER FOR HER (IS OVER FOR ME)

VERSE 1:
  F                 Bb           C           F
I blew it, and if I knew what to do then I'd do it
        Eb           Bb             F
But the point that I have, I'll get to it
       Bb       C      F
And forever for her is over for me
                Bb            C               F
Forever, just a word that she said that means never
   Eb       Bb       F
To be with another together
             Bb          C          F
And with the weight of a feather it tore into me


VERSE 2:
       F                    Bb           C           F
Then I knew it, and all the work that it took to get through it
       Eb         Bb           F
On the wings of a feather that flew it
     Bb       C         F
Fell under my shoe, cut up into me


CHORUS:
     C               Bb          F
Well, everybody's reaction is changin' you
   C                       Bb                   F
But their love is only a fraction of what I can give to you
         F
So let's do it!
     Bb       C
Just get on a plane and just do it!
         Eb            Bb           F
Like the birds and the bees and get to it
     Bb         C           F
Just get out of town and forever be free
           Bb           C           F
Forever, a word that we could say together
         Eb          Bb          F
It could change everyone for the better
     Bb        C             F
Just tug on my shirt and lay down next to me


BREAK:
F  Bb  C   F
   Eb  Bb  F
   Bb  C   F


VERSE 1

CHORUS

BREAK


LITTLE GHOST

The conventional chords can be replaced or combined with the 5th fret chords to replicate the guitar and
mandolin.

INTRO: A

CHORUS:
A                                   D             A
Little ghost, little ghost, one I'm scared of the most
                                    E
Can you scare me up a little bit of love?
        A                             D                A
I'm the only one that sees you, and I can't do much to please you
                          E             A
And it's not your time to meet the lord above


VERSE 1:
A                                         D        A
The first moment that I met her I did not expect a specter
                                       E
When I shook her hand I really shook a glove
           A                         D             A
She looked into me so sweetly and we left the room descreetly
                           E             A
No one else could know the secret of our love


CHORUS

VERSE 2:
Every morning I awoke and I'd see my little ghost
Wonderin' if it's really her that's lying there
I'll lean to touch her and I'll whisper, but I'm not brave enough to kiss her
When I held her I was really holdin' air

CHORUS

BRIDGE:
A                                        D             A
Though I tried my best to keep it, there really was no secret
                 >                           E
Must have looked like I was dancing with the wall
       A                   D    A            D              A      N.C.
No one else could see this apparition, but because of my condition
<|        A                  E                  A
I fell in love with a little ghost and that was all

CHORUS

A                        E             A     D   A   E A
No it's not your time to meet the lord above

THE DENIAL TWIST

The A position lends itself to this piano song more than the C position, so I've put a 
on the third fret.
The guitar riffs in the chorus are digitally lowered an octave (or played on an electric 
if you prefer).


VERSE 1:
       A N.C.               C N.C.
If you think that a kiss is all in the lips
     G N.C.             A N.C.
Come on, you got it all wrong, man
           A N.C.                   C N.C.
And if you think that our dance was all in the hips
    G N.C.            A
Oh, well, then do the twist
       A N.C.                   C N.C.
If you take holdin' hands, it's all in the fingers
     G N.C.                     A              /g
Grab hold of the soul where the memory lingers
    A N.C.              C N.C.
And  make sure to never do it with them singers
               G N.C.               A
'Cause they'll tell everyone in the world
/g          C         G        A
What he was thinkin' about the girl
               C         G        A    /g
Yeah what he's thinkin' about the girl


VERSE 2:
Oh, a lot of people get confused they bruise
Real easy when it comes to love
They start puttin' on their shoes and walkin' out
And singin', "Boy, I think I had enough"
But just because she makes a big rumpus
She don't mean to be mean, or hurt you on purpose, boy
Take a tip and do yourself a little service
Take a mountain, turn it into a mole
Just by playin' a different role
Yeah, by playin' a different role

CHORUS:
A A /g
      Oh,
E
  The boat, yeah, you know she's rockin' it
G
  And the truth, well, you know there's no stoppin' it

   A
    8v
e|---------------------------------------------------------|
B|---------------------------------------------------------|
G|---------------------------------------------------------|
D|-/7--7--5h7p5---/7-/7---5h7-5h7p5----5h7p5----7p5--------|
A|--------------7-------------------7--------7------7p5h7--|
E|---------------------------------------------------------|
                    yeah

     E
  Oh, the boat, yeah, you know she's still rockin' it
G
  And the truth, well, you know there's no stoppin' it

   A
   8v
e|--------------------------------------|
B|--------------------------------------|
G|--------------------------------------|
D|-7--5---------------------------------|
A|-------7--5--5h7--b5--5b6r5p3-5p3--0--|
E|--------------------------------------|

VERSE 3:
So what, somebody left you in a rut
And wants to be the one who's in control
But the feelin' that you're under can really make you wonder
How the hell she could be so cold
So now you're left denying the truth
And it's hidden in the wisdom in the back of your tooth
You need to spit it out in a telephone booth
While you call everyone that you know
And ask them, "Where do you think she goes?"
Oh yeah, "Where do you suppose she goes?"

CHORUS:
A A /g
      Oh,
E
  The truth, well, you know there's no stoppin' it
G
  And the boat, well, you know she's still rockin' it

   A  A N.C.      A  A N.C.
   8v
e|-----------------------|
B|-----------------------|
G|-----------------------|
D|-----------------------|
A|-7--7\----------7--7\--|
E|-----------------------|
            yeah

A A /g

E
  The boat, well, you know she's still rockin' it
G
  And the truth, yeah, you know there's no stoppin' it

(Piano keys)
e|-------------5-5-5-5-5-5-5-5--5-------5--5--|
B|--------------------------------------------|
G|-------2------------------------------------|
D|--------------------------------------------|
A|--------------------------------------------|
E|--------------------------------------------|
   8v (Played together)
e|--------------------------------------------|
B|--------------------------------------------|
G|--------------------------------------------|
D|-------------0----/2-----5-----7--7-5-7b~---|
A|-0-----3------------------------------------|
E|--------------------------------------------|


VERSE 4:
You recognize the effect and affect
That it's causin' when she rocks the boat
But it's the cause hittin' on the cardinal laws
'Bout the proper place to hang her coat
So to you, the truth is still hidden
And the soul plays the role of the lost little kitten
But you should know that the doctors weren't kiddin'
She was singin' it all along
But you were hearin' a different a song
Yeah, you were hearin' a different song

             C         G         A
But you were hearin' a different song


WHITE MOON

INTRO:
   E   Esus4   E       Esus4      /b E     Esus4       E /b E     Esu4    E
e|---------------------------------------------------------------------------|
B|---------------------------------------------------------------------------|
G|-1---2---2---1---1---2----2---1----1-----2-----2-----1----1-----2---2---1--|
D|-2---------------2------2----------2---2-----2-----2------2---2------------|
A|-2---------------2---------------2-2--------------------2-2----------------|
E|-0---------------0-----------------0----------------------0----------------|


VERSE 1:
E                             A
White moon, white moon breaks open the tomb
       B                     E     Esus4 E
Of a deserted cartoon that I wrote

  /e /a  E  Esus4 E
e|-------|
B|-------|
G|-------|
D|-2-----|
A|----0--|
E|-------|
                                      A
Creature come, creature, creature, my own double feature
       B                        E    Esus4 E
As I'm warming the bleachers at home

  /d   E  Esus4 E
e|----
B|----
G|----
D|-0--
A|----
E|----

         E             G                    D        F
Well, my nose keeps on bleeding 'cause it's Rita I'm needing
         Bb           A              B
I better call aloud a meeting of the boys
       E    Esus4 E
Of the boys

  /b E
e|--------------|
B|--------------|
G|---1--2--1----|
D|---2-------2--|
A|-2-2----------|
E|---0----------|


VERSE 2:
My friends are all dying and death can't be lying
It's the truth and it don't make a noise
Oh Rita, oh Rita, if you lived in Mesita
I would move you with the beat of a drum
And this picture is proof that although you're aloof
You had the shiniest tooth 'neath the Sun
Easy come, easy go, be the star of the show
I'm giving up all I know to get more
To get more

VERSE 3:
Photograph the picture, young grunt pin-up scripture
Footlocker-tagged memories of war
A mirage, this garage, and the photo montage
And the finger massage from the host
E               G         D      F
Good lord, good lord, the one I adored
       Bb      A         B
That I can't afford is a ghost
     E
Is a ghost
      E            G            D       F
Proto-social's the word and the word is bird
     Bb               A           B
That flew through the herd in the snow
       E
In the snow

VERSE 4:
Lemonade me, then grade me, then deliver my baby
And if my friends all persuade me I'll go
Blink, blink at me Rita, don't you know I'm a bleeder
And I promised I wouldn't leave her arms
But she read me, then led me, and I ate what was fed me
'Til I purged every word in this song


INSTINCT BLUES

INTRO: Two guitars warm up simultaneously

Guitar 2:
e|-------10-10b11r10p8-----8-10b11r10p8-------------8---10b11r10p8--10-10b11r10p8-------b11--8--10-10b11r10p8-|
B|-10------------------10---------------10---(10~)---------------------------------10~------------------------|
G|------------------------------------------------------------------------------------------------------------|
D|------------------------------------------------------------------------------------------------------------|
A|------------------------------------------------------------------------------------------------------------|
E|------------------------------------------------------------------------------------------------------------|

Guitar 1:
e|----------------------------------------------------------------------------------------------x-13----------|
B|------------------------------------------------------------------------------------------------------------|
G|------------------------------------------------------------------------------------------------------------|
D|-(0)--------------------------------------------------------------------------------------------------------|
A|------------------------------------------------------------------------------------------------------------|
E|---------------------------------------------------------------------------------(0)------------------------|


Guitar 2:
e|-10-10b11r10p8-------8--------------------------|
B|-----------------10-----------------------------|
G|------------------------------------------------|
D|------------------------------------------------|
A|------------------------------------------------|
E|------------------------------------------------|

Guitar 1:
e|------------------------------------------------|
B|------------------------------------------------|
G|------------------------------------------------|
D|------------------------------------------------|
A|------------------------(0)---12(~)--10---10/0--|
E|------------------------------------------------|

Guitar 2 ends

Guitar 1: Opening riff
   A5     G5              A5   G5                  A5   G5                          A5   G5
e|----------------------------------------------------------------------------------------------------------|
B|----------------------------(0)----------------------(0)--------------------------------------------------|
G|----0h2-0------------------2-0--0----(0)-(0)--(0)---2-0-----0---------------------2--2-0--0---------------|
D|-----------2--0h2p0---0-----------2--(0)-/2-0-/2---------2--0h2-0--------------0-(2)--------2--0h2p0---0--|
A|-0------------------3---0------------------------0----------------0--(0)-3--(3)--(0)-----------------3----|
E|----------------------------------------------------------------------------------------------------------|


VERSE 1:
A5           G5              E5^ E5^ E5^ E5^ E5^ E5^
   Well, the crickets get it
A5         G5          E5^ E5^ E5^ E5^ E5^ E5^
   And the ants get it
A5               G5          E5^ E5^ E5^ E5^ E5^ E5^
   I bet you the pigs get it
A5                G5            E5^ E5^ E5^ E5^ E5^ E5^
   Yeah, even the plants get it

   D5   RIFF 1                        A5^ A5^ A5^ A5^ A5^ A5^
e|-----------------------------------|
B|-----------------------------------|
G|-7----5--h--7--5~------------------|
D|-7---------------------------------|
A|-5---------------------------------|
E|-----------------------------------|
    But come  on now and get with it

D5 RIFF 1
   Yeah, I want you to get with it

   8/8v
e|-----------------|
B|----------5------|
G|-7--7--5-----5b--|
D|-----------------|
A|-----------------|
E|-----------------|

8/8v
A5  G5  E5 E5      E5   E5   E5     E5
Oh!        Yeah, I just want you to get with it!

A5  G5 E5 E5 E5 E5 E5 E5

CHORUS: 8/8v
 /e   /d /c   E5          G5         A5   A5 A5 A5
'Cause ev-ery worm that's under your shoe
N.C.      E5       G5         A5 A5  A5  A5 A5 A5
And every bird and bug in the jungle too
         E5           G5    A5   A5 A5 A5
And everything in the ocean blue
N.C.      B5               D5            B5
They just happen to know exactly what to do
N.C.
So why don't you?

   8
   A5     G5                A5                G5     A5
e|----------------------------------------------------------------|
B|-------(0)---------------------------------(0)------------------|
G|----0h2-0--0----------------------0-h-2-----0-------------------|
D|-------------2--0h2p0---0------------------------0h2-2-2-2-2-2--|
A|-0--------------------3---0-------------------------------------|
E|----------------------------------------------------------------|
                              Yeah, why don't you?

VERSE 2:
The flies get it
And the frogs get it
And all them big jungle cats get it
And I'll bet your little dog gets it
Yeah, and I want you to get with!
Oh, yeah, come on and get with it!

   8~ 8/8v
e|--------------------|
B|-------------5------|
G|----7--7--5-----5b--|
D|--------------------|
A|--------------------|
E|--------------------|
   Oh!
            P.M.
A5  G5      E5  E5  E5  E5    E5    E5          E5
Hoo!  Yeah!                Yeah, I  want you to get with it!

A5  G5

  /a /g /e /d /d /c
e|-------------------|
B|-------------------|
G|-2--0--------------|
D|-------2--0--0-----|
A|----------------3--|
E|-------------------|
         Yeah!

CHORUS:
'Cause every worm that's under your shoe
And every bird and bee in the jungle too
And everything in the ocean blue
They just happen to know exactly what to do
So why don't you?


BREAK: P.M.
   8
e|-------8(b)------8*--10b12r10p8------10--10b12r10p8-------------------15-------------15----------------|
B|-10-----------------------------10------------------10---10(~)---13------15b*p13--------15b16r15p13----|
G|---------------------------------------------------------------------------------14-----------------14-|
D|-------------------------------------------------------------------------------------------------------|
A|------------(0)----------------------------------------------------------------------------------------|
E|-------------------------------------------------------------------------------------------------------|

e|------------------------8---10--10-10b12r10p8------------8b---------------0h3bp0-------|
B|-10(~)----------------------------------------10---10~-----------(2)--0h3--------0-----|
G|---------------------------------------------------------------------------------------|
D|-------------------------------------------------------------(0)-----------------------|
A|-----------------------------------------------------------------------------------3b--|
E|---------------------------------------------------------------------------------------|
     (Then why don't you?)


VERSE 3:
A5             G5              E5^ E5^ E5^ E5^ E5^ E5^
   And all the chickens get it
A5                     G5           E5^ E5^ E5^ E5^ E5^ E5^
   And them singin' canaries get it
A5 G5     E5^ E5^ E5^ E5^ E5^ E5^ E5^ E5^ E5^ E5^ E5^ E5^ E5^ E5^ E5^ E5^ E5^ E5^
      Oh!                                         Oh!
   A5  G5           E5^  E5^ E5^         E5^ E5^ E5^
   Hoo!  Yeah, even strawberries get it, huh
D5 RIFF 1                   A5  A5      A5 A5 A5   A5
          And I want you to get with it,      yeah!
D5   RIFF 1                         N.C.
   Yeah, I want you to get with it!

   /8^                   8/8v
e|---------(0)---------------------------|
B|-----(0)-----(0)----------------5------|
G|--5--------------(5)---7--7--5-----5b--|
D|---------------------------------------|
A|---------------------------------------|
E|---------------------------------------|
                      Oh!

A5  G5  E5^ E5^ E5^ E5^ E5^ E5^
Yeahhh!

D5    RIFF 1
  Ah, come on and get with it

  /b /a /g  /e /g /e /d
e|-----------------------|
B|-----------------------|
G|-4--2--0------0--------|
D|-----------2-----2--0--|
A|-----------------------|
E|-----------------------|


CHORUS: 8/8v
              E5          G5         A5   A5 B5 A5
'Cause ev-ery worm that's under your shoe
N.C.      E5       G5         A5 A5  A5  A5 A5 A5
And every bird and bee in the jungle too
         E5           G5    A5   A5 A5 A5
And everything in the ocean blue
N.C.      B5               D5            B5 (feedback)
They just happen to know exactly what to do
N.C.              A5
So why don't you?

A5 A5 A5 A5 A5 A5 A5 A5 A5 A5 A5 A5


Played 3x: Increasing Whammy distortion (8~) and feedback
E5^ E5^ E5^ E5^ E5^ E5^ E5^ E5^ E5^ E5^ E5^ E5^ E5^ E5^ E5^


PASSIVE MANIPULATION

VERSE 1: Played 2x
A                     C
Women, listen to your mothers
              D                          A
Don't just succomb to the wishes of your brothers
            A                         C
Take a step back, take a look at one another
                     D                    A
You need to know the difference between a father and a lover

BRIDGE:
A N.C. A* C N.C.
Women,    listen to your mothers
D N.C.                    A N.C.
Don't just succomb to the wishes of your brothers
A N.C.                   C N.c.
Take a step back, take a look at one another
    D N.C.                      A
You need to know the difference


TAKE, TAKE, TAKE


VERSE 1:
G       Bb                     F
  I was sittin' there, I had a comfortable chair
                          G
  And that was all that I needed
G                Bb           F
  Then my friend offered me a drink for us to share
                          G
  And that was all that I needed
        Bb5    C5      Bb5
  Well, then I felt at ease
                D5      F5'     D5
  But then, I'm not too hard to please
              F5`     (F#5)    G
  I guess you couldn't call me greedy

VERSE 2:
And I was shocked to look up and see Rita Hayworth` there
She walked into the bar with her long red curly hair
And that was all that I needed
And I said to my friend
"Good God we're lucky men
Well, to just even see her"


CHORUS:

Played 2x:
Chords: G5  G5  G5  Bb5 Bb5 F5  F5  Bb5 Bb5 F5  F5      Bb5 Bb5 F5

G5  G5 G5   Bb5 Bb5 F5 F5   Bb5 Bb5 F5 F5    Bb5 Bb5 F5 G5
                       Take,           take,            take!

G5 G5  Bb5 Bb5 F5 F5    Bb5 Bb5 F5 F5    Bb5 Bb5 F5 G5
                  Take,            take,            take!

G5 G5  Bb5 Bb5 F5 F5    Bb5 Bb5 F5 F5    Bb5 Bb5 F5 G5
                  Take,            take,            take!


VERSE 3:
Yeah, I could not resist, I just had to get close to her
And that was all that I needed
I walked and loomed around her table for a while
And that was all that I needed
Then I said, "I hate to bug you, Ma'am
But can I have your autograph?"
And that was all that I needed

VERSE 4:
She pressed her lips against a white piece of paper
And that was all that I needed
Then I saw what she wrote, my heart is in my mouth
And that was all that I needed
Then she handed it to me
And I think that she could see
That that was all that I needed

VERSE 5:
I started to walk away, but then I remembered, hey
I forgot to get a picture
So I asked her one more time, could I have another favor
That was all that I needed
She was kind to pose with me
Then I know my friends would see
My celebrity meeting

CHORUS

VERSE 6:
She turned and said to me, "I need to go to sleep"
And it seemed so mean
It's almost as if she did not appreciate
How cool I was being
She said, "Goodnight" and walked away
And I didn't know what to say
I just couldn't believe it

VERSE 7:
Well it's just not fair, I wanted to get a piece of hair
And that was all that I needed
Or maybe a kiss on the cheek, I wouldn't wash it for a week
That would be all that I needed
But she didn't even care
That I was even there
What a horrible feeling


AS UGLY AS I SEEM


Intro
e|---------------------------------------------------------------------------|
B|--3\2—-x-x--3-3\2-x-2------------------x-x--3-3\2-x-2----------------------|
G|--2-2--x-x--2-2-2-x-2--0-0-------------x-x--2-2-2-x-2--0-0-----------------|
D|--2-2--x-x--2-2-2-x-2---2----(2)-(2)---x-x--2-2-2-x-2---3----(3)-(3)-------|
A|---------------------------------------------------------------------------|
E|---------------------------------------------------------------------------|

e|---------------------------------------------------------------------------|
B|--x-x--3-3\2-x-0-----------------------------------------------------------|
G|--x-x--2-2-2-x-2--0-0------------------------------------------------------|
D|--x-x--2-2-2-x-2---2--------(play either soft of ghost notes here)---------|
A|---------------2-----------------------------------------------------------|
E|---------------------------------------------------------------------------|

Rhythm/Verses
     I...       am as ugly as I seem...
e|---------------------------------------------------------------------------|
B|----------2-------3\2--0--2--2---------------------------------------------|
G|------2-2---2-----2-2--0--2--2---------------------------------------------|
D|------------------2-2--0--2--2---------------------------------------------|
A|---------------------------------------------------------------------------|
E|---------------------------------------------------------------------------|
     Worse than all your dreams
e|--------------------------4------------------------------------------------|
B|----3\2-------------------0------------------------------------------------|
G|----2-2------0-0----------0----------2----2--------------------------------|
D|----2-2------0-0----------0------2-2---2-2---------------------------------|
A|--------------------------2------------------------------------------------|
E|--------------------------3------------------------------------------------|
       Could ever make me out to be
e|---------------------------------------------------------------------------|
B|-----------------2---------------------------------------------------------|
G|----2------------2---------------------------------------------------------|
D|-2-2-------------2---------------------------------------------------------|
A|---------------------------------------------------------------------------|
E|---------------------------------------------------------------------------|


|------------------------|------------------------|
|------------------------|------------------------|
|-------0--------0-----0-|-------0----------------|
|----2--------4-----4----|----2--------4----------| 2X
|-3--------5-------------|-3--------5-----3--2--0-|


RED RAIN

INTRO:

Guitar:
 E|-9-/-10-/-12--------12-/-14--15---15-15-/-17--15--------------|
C#|--------------12\---------------------------------/17-/15(~)--|
 A|--------------------------------------------------------------|
 E|--------------------------------------------------------------|
 A|--------------------------------------------------------------|
 E|--------------------------------------------------------------|


Bells: False harmonics
 E|-9*--10*--12*--9*---12*--14*--15*---15*--15*---17*---15*---14*----12*--|
C#|-----------------------------------------------------------------------|
 A|-----------------------------------------------------------------------|
 E|-----------------------------------------------------------------------|
 A|-----------------------------------------------------------------------|
 E|-----------------------------------------------------------------------|
                      (Can  you  hear  me   cal - lin'  your  name,  girl?)


Played together:

Guitar:
 E|-9-/-10-/-12--------12-/-14--15---15-15-/-17--15------------------------|
C#|--------------12\---------------------------------/17-/15---10-/-12-----|
 A|--------------------------------------------------------------------12--|
 E|------------------------------------------------------------------------|
 A|------------------------------------------------------------------------|
 E|------------------------------------------------------------------------|

Bells: False harmonics
 E|-9*--10*--12*-9*----12*--14*-15*--15*-15*-17*-15*--14*-12*--|
C#|------------------------------------------------------------|
 A|------------------------------------------------------------|
 E|------------------------------------------------------------|
 A|------------------------------------------------------------|
 E|------------------------------------------------------------|


VERSE 1:
                                                                          A
 E|-----------------------------------------------------------------------0-0-0--|
C#|----------------------------------12--12----------10/12\-10------(\)---0-0-0--|
 A|--------------12\--------10-/-12------------------------------12-(\)---0-0-0--|
 E|-9-/-10-/-12-------(0)-------------------------------------------(\)---0-0-0--|
 A|-----------------------------------------------------------------(\)---0-0-0--|
 E|------------------------------------------------------------------------------|
   (I   am   standin',               standin' in the red,   red, rain)
                                                                          A
 E|-----------------------------------------------------------------------0-0-0--|
C#|----------------------------------12--12----------10/12\-10------(\)---0-0-0--|
 A|-------------12\---------10-/-12------------------------------12-(\)---0-0-0--|
 E|-9-/-10-/-12-------(0)-------------------------------------------(\)---0-0-0--|
 A|-----------------------------------------------------------------(\)---0-0-0--|
 E|------------------------------------------------------------------------------|
   (In  the  mornin',                standin' in the red,   red rain)

              A    A   A    B    C          D    C    B     A     A
 E|-----------12---0---12-/-14-/-15---15-15/17---15---14----12\---0-0-0--|
C#|-----------12---0---12-/-14-/-15---15-15/17---15---14----12\---0-0-0--|
 A|-----------12---0---12-/-14-/-15---15-15/17---15---14----12\---0-0-0--|
 E|-----------12---0---12-/-14-/-15---15-15/17---15---14----12\---0-0-0--|
 A|-----------12---0---12-/-14-/-15---15-15/17---15---14----12\---0-0-0--|
 E|----------------------------------------------------------------------|
    Can't you hear me? Can  you  hear me callin' your name, girl?

              A   A     A     B   C               D    C    B     A     A
 E|-----------12--0-----12-/--14-/15--15---15-15-/17---15---14----12\---0-0-0--|
C#|-----------12--0-----12-/--14-/15--15---15-15-/17---15---14----12\---0-0-0--|
 A|-----------12--0-----12-/--14-/15--15---15-15-/17---15---14----12\---0-0-0--|
 E|-----------12--0-----12-/--14-/15--15---15-15-/17---15---14----12\---0-0-0--|
 A|-----------12--0-----12-/--14-/15--15---15-15-/17---15---14----12\---0-0-0--|
 E|----------------------------------------------------------------------------|
    In the    mor-nin', while I'm standin' in the red, red, rain, girl

 E|----------------------------------------------------------------0-0-0--|
C#|----------------------------------12--12-10-/-12\--10-----(\)---0-0-0--|
 A|--------------12\--------10-/-12-----------------------12-(\)---0-0-0--|
 E|-9-/-10-/-12-------(0)------------------------------------(\)---0-0-0--|
 A|----------------------------------------------------------(\)---0-0-0--|
 E|-----------------------------------------------------------------------|

 E|-----------------------------------------------------------------------0-0-0--|
C#|----------------------------------12--12----------10/12\-10------(\)---0-0-0--|
 A|-------------12\---------10-/-12------------------------------12-(\)---0-0-0--|
 E|-9-/-10-/-12-------(0)-------------------------------------------(\)---0-0-0--|
 A|-----------------------------------------------------------------(\)---0-0-0--|
 E|------------------------------------------------------------------------------|
   (In  the  mornin',                standin' in the red,   red rain)

              A    A   A     B    C          D    C    B     A     A
 E|-----------12---0---12-/--14-/-15---15-15/17---15---14----12\---0-0-0--|
C#|-----------12---0---12-/--14-/-15---15-15/17---15---14----12\---0-0-0--|
 A|-----------12---0---12-/--14-/-15---15-15/17---15---14----12\---0-0-0--|
 E|-----------12---0---12-/--14-/-15---15-15/17---15---14----12\---0-0-0--|
 A|-----------12---0---12-/--14-/-15---15-15/17---15---14----12\---0-0-0--|
 E|-----------------------------------------------------------------------|
    Can't you hear me? Can't you  hear me callin' your name, girl?

              A   A     A     B   C               D    C    B     A    A      A
 E|-----------12--0-----12-/--14-/15--15---15-15-/17---15---14----12\---0-0-0--12\--|
C#|-----------12--0-----12-/--14-/15--15---15-15-/17---15---14----12\---0-0-0--12\--|
 A|-----------12--0-----12-/--14-/15--15---15-15-/17---15---14----12\---0-0-0--12\--|
 E|-----------12--0-----12-/--14-/15--15---15-15-/17---15---14----12\---0-0-0--12\--|
 A|-----------12--0-----12-/--14-/15--15---15-15-/17---15---14----12\---0-0-0--12\--|
 E|---------------------------------------------------------------------------------|
    In the    mor-nin', while I'm standin' in the red, red, rain, girl

        D                        F              C          A            C B A C B A
 E|--------------------------------------------------------0---0--0-0---3\2\0-3\2\0--|
C#|---------------5-----------------------8----------------0---0--0-0---3\2\0-3\2\0--|
 A|----/5-----5------5----5--5---5--/--8------8\3----3--/--0---0--0-0---3\2\0-3\2\0--|
 E|----/5------------------------5--/--8------8\3----3--/--0---0--0-0---3\2\0-3\2\0--|
 A|----/5-------------------------------------8\3----3--/--0---0--0-0---3\2\0-3\2\0--|
 E|----------------------------------------------------------------------------------|
    You think not tellin' is the same  as not lyin', don't you?

        D                        F                C       A       C B A C B A  A7
 E|-------------------------------------------------------0---0---3\2\0-3\2\0-(3)-(3)-|
C#|---------------5---------------------------------------0---0---3\2\0-3\2\0--0---0--|
 A|----/5-----5------5----5--5---5--/--8--8----8\-3---3-/-0---0---3\2\0-3\2\0--0------|
 E|----/5------------------------5--/--8--8----8\-3---3-/-0---0---3\2\0-3\2\0--0------|
 A|----/5--------------------------------------8\-3---3-/-0---0---3\2\0-3\2\0--0------|
 E|-----------------------------------------------------------------------------------|
 Then I guess not feelin' is the same  as not  cryin' to  you

    C   D                        F              C          A            C   B A
 E|--------------------------------------------------------0---0--0-0---3-3\2\0--|
C#|---------------5-----------------------8----------------0---0--0-0---3-3\2\0--|
 A|-3--/5-----5------5----5--5---5--/--8------8\3----3--/--0---0--0-0---3-3\2\0--|
 E|-3--/5------------------------5--/--8------8\3----3--/--0---0--0-0---3-3\2\0--|
 A|-3--/5-------------------------------------8\3----3--/--0---0--0-0---3-3\2\0--|
 E|------------------------------------------------------------------------------|
    You think not tellin' is the same  as not lyin', don't you?

        D                        F                C       A       C B A
 E|-------------------------------------------------------0---0---3\2\0--0-0--|
C#|---------------5---------------------------------------0---0---3\2\0--0-0--|
 A|----/5-----5------5----5--5---5--/--8--8----8\-3---3-/-0---0---3\2\0--0-0--|
 E|----/5------------------------5--/--8--8----8\-3---3-/-0---0---3\2\0--0-0--|
 A|----/5--------------------------------------8\-3---3-/-0---0---3\2\0--0-0--|
 E|---------------------------------------------------------------------------|
 Then I guess not feelin' is the same  as not  cryin' to  you


CHORUS:
    E   D   C  A      F#  G    A   A      A    B    C    A      E   D   C    A
 E|-7-\-5\--3--0--0---9-/-10-/-12--0--0---12-/-14/--15---0--0---7-\-5\--3----0--0--|
C#|-7-\-5\--3--0--0---9-/-10-/-12--0--0---12-/-14/--15---0--0---7-\-5\--3----0--0--|
 A|-7-\-5\--3--0--0---9-/-10-/-12--0--0---12-/-14/--15---0--0---7-\-5\--3----0--0--|
 E|-7-\-5\--3--0--0---9-/-10-/-12--0--0---12-/-14/--15---0--0---7-\-5\--3----0--0--|
 A|-7-\-5\--3--0--0---9-/-10-/-12--0--0---12-/-14/--15---0--0---7-\-5\--3----0--0--|
 E|--------------------------------------------------------------------------------|
					  In   the  red!        In  the rain!

    E   D   C    A      F#  G    A   A      A    B    C    A      E   D   C    A
 E|-7-\-5\--3----0--0---9-/-10-/-12--0--0---12-/-14/--15---0--0---7-\-5\--3----0--0--|
C#|-7-\-5\--3----0--0---9-/-10-/-12--0--0---12-/-14/--15---0--0---7-\-5\--3----0--0--|
 A|-7-\-5\--3----0--0---9-/-10-/-12--0--0---12-/-14/--15---0--0---7-\-5\--3----0--0--|
 E|-7-\-5\--3----0--0---9-/-10-/-12--0--0---12-/-14/--15---0--0---7-\-5\--3----0--0--|
 A|-7-\-5\--3----0--0---9-/-10-/-12--0--0---12-/-14/--15---0--0---7-\-5\--3----0--0--|
 E|----------------------------------------------------------------------------------|
    In  the rain!       In  the  red!	    In   the  red!        In  the rain!

    E   D   C    A      F#  G    A   A      A    B    C    A      E   D   C    A
 E|-7-\-5\--3----0--0---9-/-10-/-12--0--0---12-/-14/--15---0--0---7-\-5\--3----0--0--|
C#|-7-\-5\--3----0--0---9-/-10-/-12--0--0---12-/-14/--15---0--0---7-\-5\--3----0--0--|
 A|-7-\-5\--3----0--0---9-/-10-/-12--0--0---12-/-14/--15---0--0---7-\-5\--3----0--0--|
 E|-7-\-5\--3----0--0---9-/-10-/-12--0--0---12-/-14/--15---0--0---7-\-5\--3----0--0--|
 A|-7-\-5\--3----0--0---9-/-10-/-12--0--0---12-/-14/--15---0--0---7-\-5\--3----0--0--|
 E|----------------------------------------------------------------------------------|
    In  the rain!       In  the  red!	    In   the  red!        In  the rain!


    E   D   C    A      F#  G    A A        A     B    C    A     E   D   C    A
 E|-7-\-5\--3----0--0---9-/-10-/-12--0--0---12-/-14/--15---0--0---7-\-5\--3----0--0--|
C#|-7-\-5\--3----0--0---9-/-10-/-12--0--0---12-/-14/--15---0--0---7-\-5\--3----0--0--|
 A|-7-\-5\--3----0--0---9-/-10-/-12--0--0---12-/-14/--15---0--0---7-\-5\--3----0--0--|
 E|-7-\-5\--3----0--0---9-/-10-/-12--0--0---12-/-14/--15---0--0---7-\-5\--3----0--0--|
 A|-7-\-5\--3----0--0---9-/-10-/-12--0--0---12-/-14/--15---0--0---7-\-5\--3----0--0--|
 E|----------------------------------------------------------------------------------|
    In  the rain!       In  the  red!	    In   the  red!        In  the rain!

    E   D   C    A
 E|-7-\-5\--3----0--0--|
C#|-7-\-5\--3----0--0--|
 A|-7-\-5\--3----0--0--|
 E|-7-\-5\--3----0--0--|
 A|-7-\-5\--3----0--0--|
 E|--------------------|
    In  the rain!


BRIDGE: Guitar and Bells play simultaneously

Guitar:
     C A    E
 E|-(3p0)--/7----------------------------------------------------------------------------------7-----|
C#|-(3p0)--/7---7---7---7---7---7-\-5-\-3--/5-/-7---7---7---7---7---7---7---7-\-5-\-3--/5-/-7-----7--|
 A|-(3p0)--/7------------------------------------------(~~~~~~~~~~~~~~~~~)---------------------------|
 E|-(3p0)--/7------------------------------------------(~~~~~~~~~~~~~~~~~)---------------------------|
 A|-(3p0)--/7----------------------------------------------------------------------------------------|
 E|--------------------------------------------------------------------------------------------------|

									 Bells:
                                         E|--------------------7*-----|
                                    C#|-7*--5*--3*--5*--7*----7*------|
                                     A|-------------------------------|
                                     E|-------------------------------|
                                     A|-------------------------------|
                                     E|-------------------------------|

Guitar:
 E|----------------------------------------------------------7-----|
C#|--7-\-5--\--3--/5-/-7---7---7---7----7--\--5-\-3--/5-/-7-----7--|
 A|----------------------------------------------------------------|
 E|----------------------------------------------------------------|
 A|----------------------------------------------------------------|
 E|----------------------------------------------------------------|
     If  there is  a   lie,        then there is  a   liar   too

Bells:
 E|----------------------------------------------------------7*-----|
C#|--7*--5*----3*--5*--7*--7*------7*---7*----5*--3*--5*--7*----7*--|
 A|-----------------------------------------------------------------|
 E|-----------------------------------------------------------------|
 A|-----------------------------------------------------------------|
 E|-----------------------------------------------------------------|


Guitar:
                                        E     D   C   D   E
 E|------------------------7---------------------------------7-----|
C#|--7-\-5--\--3--/5-/-7---7---7---7----7--\--5-\-3--/5-/-7--7--7--|
 A|----------------------------7---7----7--\--5-\-3--/5-/-7-----7--|
 E|--------------------------------7----7--\--5-\-3--/5-/-7--------|
 A|----------------------------------------------------------------|
 E|----------------------------------------------------------------|
And if   there is  a   sin,        then there is  a   sinner too

Bells:
 E|----------------------------------------------------------7*-----|
C#|--7*--5*----3*--5*--7*--7*------7*---7*----5*--3*--5*--7*----7*--|
 A|-----------------------------------------------------------------|
 E|-----------------------------------------------------------------|
 A|-----------------------------------------------------------------|
 E|-----------------------------------------------------------------|


Guitar:
                                        E     D   C   D   E
 E|------------------------7---------------------------------7-----|
C#|--7-\-5--\--3--/5-/-7---7---7---7----7--\--5-\-3--/5-/-7--7--7--|
 A|--7-\-5--\--3--/5-/-7-------7---7----7--\--5-\-3--/5-/-7-----7--|
 E|--7-\-5--\--3--/5-/-7-----------7----7--\--5-\-3--/5-/-7--------|
 A|----------------------------------------------------------------|
 E|----------------------------------------------------------------|
 And if  there is  a   lie,        then there is  a   liar   too

Bells:
 E|----------------------------------------------------------7*-----|
C#|--7*--5*----3*--5*--7*--7*------7*---7*----5*--3*--5*--7*----7*--|
 A|-----------------------------------------------------------------|
 E|-----------------------------------------------------------------|
 A|-----------------------------------------------------------------|
 E|-----------------------------------------------------------------|


Guitar:
     E   D     C   D   E   E5                         C5 A5
 E|-------------------------------------------------------------|
C#|--7-\-5--\--3--/5-/-7----------------------------------------|
 A|--7-\-5--\--3--/5-/-7---7---7---7----7-----7---7---3--0---0--|
 E|--7-\-5--\--3--/5-/-7---7---7---7----7-----7---7---3--0---0--|
 A|--7-\-5--\--3--/5-/-7---7---7---7----7-----7---7---3--0---0--|
 E|-------------------------------------------------------------|
And if   there is  a   sin,        then there is  a   sinner too!

Bells:
 E|-------------------------------------------------------------|
C#|--7*--5*----3*--5*--7*--7*-7*---7*---7*----7*--7*--7*--------|
 A|-------------------------------------------------------------|
 E|-------------------------------------------------------------|
 A|-------------------------------------------------------------|
 E|-------------------------------------------------------------|


CHORUS:
In the red! In the red!
In the rain! In the rain!
In the red! In the red!
In the rain! In the rain!
In the red! In the red!
In the rain! In the rain!


Played 2x:
    F#  G    A    A N.C. A    B    C    A N.C. E   D   C   A N.c. E   D   C   A N.C.
 E|-9-/-10-/-12---0------12-/-14/--15---0------7-\-5\--3---0------7-\-5\--3---0--|
C#|-9-/-10-/-12---0------12-/-14/--15---0------7-\-5\--3---0------7-\-5\--3---0--|
 A|-9-/-10-/-12---0------12-/-14/--15---0------7-\-5\--3---0------7-\-5\--3---0--|
 E|-9-/-10-/-12---0------12-/-14/--15---0------7-\-5\--3---0------7-\-5\--3---0--|
 A|-9-/-10-/-12---0------12-/-14/--15---0------7-\-5\--3---0------7-\-5\--3---0--|
 E|------------------------------------------------------------------------------|


In the red! In the red!
In the rain! In the rain!
In the red! In the red!
In the rain! In the rain!

    A  C     A
 E|-------------0--|
C#|-0--3--3--0-----|
 A|-0--3--3--0-----|
 E|-0--3--3--0-----|
 A|-0--3--3--0-----|
 E|----------------|


Bells:
 E|-9*----10*--12*--9*---12*---14*--15*---15*--15*---17*---15*---14*----12*--|
C#|--------------------------------------------------------------------------|
 A|--------------------------------------------------------------------------|
 E|--------------------------------------------------------------------------|
 A|--------------------------------------------------------------------------|
 E|--------------------------------------------------------------------------|
    Don't you  hear me?  Can't you  hear  me   cal - lin'  your  name,  girl?


Guitar:
 E|-------------|
C#|-10-/-12(~)--|
 A|-10-/-12(~)--|
 E|-10-/-12(~)--|
 A|-------------|
 E|-------------|


IM LONELY (BUT I AINT THAT LONELY YET)

INTRO:
   C   s4 C  /g  C    s4    C         s4 C  /g C     s4    C
e|-----1--0-----------1---1-0---------1--0-----------1---1-1--|
B|-----1--1-----------1---1-1---------1--1-----------1---1-0--|
G|------------------------------------------------------------|
D|------------------------------------------------------------|
A|-3-------------3--3---3-------3---3----------3---3---3------|
E|-----------(3)-----------------------------3----------------|


VERSE 1:
C                            F              C
Well, I miss my mother and I miss being her son
                               G
And as crazy as I was, guess I wasn't much fun
    C                                  F               C
Sometimes I miss her so much I want to hop on the next jet
          C             G                 C   Csus4 C
And I get lonely, but I ain't that lonely yet


CHORUS:
      F                    C
And I love my sister, lord knows how I've missed her
    F                       (F#)   G      Gsus4 G
She loves me and she knows I won't forget
        C                      F              C
And sometimes I get jealous of all her little pets
                        G                 C   Csus4 C
And I get lonely, but I ain't that lonely yet


BREAK 1:
   C                          F            C                           G
e|-0-0-0-0-0-0-0-0-0--1--0-0---------------------0--0--0--0-----0----------------------------------|
B|---------------------------------------------1---------1--1-4------------------------------------|
G|-------------------------------2p0---1h2--------------------------------4---3---3-4----3(h4)-----|
D|-----------------------------------3--------------------------------------5---5------4-------(4)-|
A|-3------------------3-----3--------------3--------3--------------3-3-----------------------------|
E|----------------------------1----------------------------------------3---------------------------|
   C                        F          C                      G       C
e|----0------0------0-0-------------------0----0----0-----1--------------|
B|-------1-4----4/5---------------------------------1-----0---3----0-----|
G|-----------------------------2----2---------------0---------0----0-----|
D|-----------------------------3----3-------------------------0----------|
A|-3------------------3----------------3-----3----3----3--------------3--|
E|-----------------------3--1-----1-----------------------------3--------|


INTRO

VERSE 2:
I roll over in bed looking for someone to touch
There's a girl that I know of that don't ask for much
She's homely and she's cranky, and her hair's in a net
And I'm lonely, but I ain't that lonely yet

CHORUS:
       F                              C
I am a friend when I need one, I need someone to be one
     F           (F#)   G   Gsus4 G
I'll take anybody I can get
    C                               F           C
Sometimes I want to call you, but I feel like a pest
        C             G                 C   Csus4 C
And I'm lonely, but I ain't that lonely yet


BREAK 2:
   C			           F                C
e|-0-0-0-0-0-0-0-0-0--1--1--0-1-0------5-5-5-5--5-5----3-----0----0--0--0-----------0----0-|
B|---------------------------------------------------------1----1----------1-4--1-4----1---|
G|-----------------------------------------------------------------------------------------|
D|-----------------------------------------------------------------------------------------|
A|-3------------------3-------3---------------------3-------------3----------3-------------|
E|------------------3-------3------1----------1-----------------3----------3---------------|

   G                      C                              F               C                     G        C
e|--------------------------3-3-0--3-3-0-------3-3--0-----------------------0----0----0----1------1--1-----|
B|----0-----------0----0------------------1-4------------------1----1-------1--1-1--1-1--1-1---------------|
G|-------0-3--0-3----0---------------------------------------2---------------------------------------------|
D|---------------------------------------------------------3-----3----3------------------------------------|
A|------------------------3-----------------3----------------------------3--3----3----3----3------------3--|
E|-3-------3----3------3-------------------------------3-1-------------------------------------3-----------|


VERSE 3:
I went down to the river filled with regret
Looked down and I wondered if there was any reason left
And just before my lungs could get wet
I'm lonely, but I ain't that lonely yet


CHORUS:
      F                    C
And I love my sister, lord knows how I've missed her
    F                       (F#)   G      Gsus4 G
She loves me and she knows I won't forget
        C                      G   F          C
And sometimes I get jealous of all her little pets
                        G                 C
And I get lonely, but I ain't that lonely yet
                          G                 C   C C
Yeah, I get lonely, but I ain't that lonely yet
comments
We did not receive enough feedback on this tab! Please rate:
print report bad tab
1 2 3 4 5
2 comments total.
0 reply
a_rush_of_blood wrote on December 4 2005, 06:18 am

www.brokenbricks.com

0 reply
WhiteStripesIII wrote on June 7 2006, 02:59 pm

Yep, straight from brokenbricks

I want to post or [tab]
guest
You may want to rate the tab now too:
select rating
Please do not post tabs as comments. Select "correction" instead!