Oops, an error
Loading. Please wait.

Were Going To Be Friends Tab

ver1
ver1

Whole song

Interactive

More versions @911Tabs.com
318,274 views 1,260 this week
10 commentsread comments
1 2 3 4 5
excellent!
x 75
Autoscroll
+/-
esc
set tempo
stop
Contributor
Difficulty
novice
Hey! There's an official Ultimate Guitar app which is ideal
for learning songs when you're away from computer. Get the app
WARNING: You are trying to view
                                    content from Ultimate-Guitar.com
                                    in an unauthorized application,
                                    which is prohibited.

                                    Please use an official Ultimate
                                    Guitar Tabs application for iPhone,
                                    iPad or Android to access legitimate
                                    chords, guitar, bass, and drum tabs
                                    from Ultimate-Guitar.com database.

                                    Type "ultimate guitar tabs" in Apple
                                    App Store's or Android Market's
                                    search to find the application.
-------------------------------------------------------------------------------
                  We're Gonna Be Friends - The White Stripes
-------------------------------------------------------------------------------



Tabbed by: Camster4153                 [sta]Hyperreality

Email:camster4153@hotmail.com

Tuning: Standard



*****************************************************
EDIT

thanks to thedohboy123, KOL-BOOT and reedbyrd

*****************************************************


Enjoy!!!

Please rate :)



INTRO:

e|---------------------------------------------------------------------------|
B|-----------0-------0-------0-----------------------------------------------|
G|---0---0-------0-------0-------0-------------------------------------------|
D|---------------------------------------------------------------------------|
A|---------------------------------------------------------------------------|
E|-3---3---3---3---3---3---3---3---3-----------------------------------------|


Verse:

e|---------------------------------------------------------------------------|
B|---0-------0-------0-------0-------1-------1---0---------------------------|
G|-------0-------0-------0-------0-------0-----------------------------------|
D|---------------------------------------------------------------------------|
A|---------------------------------3---3---3---3-----------------------------|
E|-3---3---3---3---3---3---3---3---------------------------------------------|


e|-------------------2-------------------------------------------------------|
B|-------0-------0-------3---3-------0-------0---0---------------------------|
G|---0-------0---------------------------0-----------------------------------|
D|-----------------0---0-----------------------------------------------------|
A|-------------------------3---3---------------------------------------------|
E|-3---3---3---3-----------------2-3---3---3---3-----------------------------|


e|---2-----------------------------------------------------------------------|
B|-------3---3---3-------0-------0-------0-------0---------------------------|
G|-------------------0-------0-------0-------0-------------------------------|
D|-0---0---------------------------------------------------------------------|
A|---------3---3-------------------------------------------------------------|
E|-----------------3---3---3---3---3---3---3---3-----------------------------|


Put this in at the end of a verse where ever you want:

e|---------------------------------------------------------------------------|
B|-------3-------3-----------------------------------------------------------|
G|---0-------0---------------------------------------------------------------|
D|---------------------------------------------------------------------------|
A|---------------------------------------------------------------------------|
E|-3---3---3---3-------------------------------------------------------------|



Bridge:

e|---------------------------------------------------------------------------|
B|---1-------1---0-------0-------0-------------------------------------------|
G|-------0-----------0-------0-----------------------------------------------| X 2 
D|---------------------------------------------------------------------------|     
A|-3---3---3---3-------------------------------------------------------------|  
E|-----------------3---3---3---3---------------------------------------------|


e|---------------------------------------------------------------------------|
B|-------2---2-------2-------2---0-------------------------------------------|
G|---2-----------2-------2---------------------------------------------------|
D|---------------------------------------------------------------------------|
A|-0---0---0---0---0---0---0---0---------------------------------------------|
E|---------------------------------------------------------------------------|

e|-----------------------2---------------------------------------------------|
B|---1---1---1---0---3-------3---3-------------------------------------------|
G|---------------------------------------------------------------------------|
D|-----------------0---0---0---0---------------------------------------------|
A|-3---3---3---3-------------------------------------------------------------|
E|---------------------------------------------------------------------------|



After another verse, finish with a "G6" chord : 


e|--0--|
B|--3--|
G|--0--|
D|--0--|
A|--x--|
E|--3--|


Tap along with your foot, it sounds good.




************************************

| x   Mute note

************************************

Heres the lyrics for those who want them:


fall is here, hear the yell
back to school, ring the bell
brand new shoes, walking blues
climb the fence, book and pens
i can tell that we are gonna be friends

walk with me, suzy lee
through the park, by the tree
we will rest upon the ground
and look at all the bugs we've found
then safely walk to school
without a sound

well here we are, no one else
we walked to school all by ourselves
there's dirt on our uniforms
from chasing all the ants and worms
we clean up and now it's time to learn


numbers, letters, learn to spell
nouns, and books, and show and tell
at playtime we will throw the ball
back to class, through the hall
teacher marks our height against the wall

and we don't notice any time pass
we don't notice anything
we sit side by side in every class
teacher thinks that i sound funny
but she likes the way you sing

tonight i'll dream while i'm in bed
when sill thoughts go through my head
about the bugs and alphabet
and when i wake tomorrow i'll bet
that you and i will walk together again
cause i can tell that 
we are going to be friends 
comments
print report bad tab
10 comments total. Showing first comments.
+2 reply
dillpickle32 wrote on May 30 2010, 03:17 pm

THANK YOU! Someone FINALLY decided to put down a picking pattern!lol I was too lazy to figure it out for myself.lol Everyone else only would put chords. It is perfect just played through it with the music. Good job.

+4 reply
KOL-BOOT wrote on August 29 2010, 01:56 am

The 5th fret note that you have in the verse is technically the correct note but it isn't at all necessary to play it there. Just play an open D and it will make things much easier.

+2 reply
vfrfreak23 wrote on January 8 2011, 06:32 pm

In the verse, where it's on the fifth fret, it can actually played as an open D. Instead fifth fret on the A string, it can be an open D string

I want to post or [tab]
guest
You may want to rate the tab now too:
select rating
Please do not post tabs as comments. Select "correction" instead!