Oops, an error
Loading. Please wait.

White Stripes Tab

57,184 views 46 this week
4 commentsread comments
1 2 3 4 5
accurate
x 7
Autoscroll
+/-
esc
set tempo
stop
Contributor
Hey! There's an official Ultimate Guitar app which is ideal
for learning songs when you're away from computer. Get the app
WARNING: You are trying to view
                                    content from Ultimate-Guitar.com
                                    in an unauthorized application,
                                    which is prohibited.

                                    Please use an official Ultimate
                                    Guitar Tabs application for iPhone,
                                    iPad or Android to access legitimate
                                    chords, guitar, bass, and drum tabs
                                    from Ultimate-Guitar.com database.

                                    Type "ultimate guitar tabs" in Apple
                                    App Store's or Android Market's
                                    search to find the application.
1.Jimmy the Exploder
2.Stop Breaking Down
2.The Big Three Killed my Baby (CD only)
4.Suzy Lee
5.Sugar Never Tasted So Good (CD only)
6.Wasting My Time
7.Cannon
8.Astro
9.Broken Bricks
10.When I Hear My Name do
11.Screwdriver
12.One More Cup of Coffee (CD only)
13.Little People
14.Slicker Drips
15.St. James Infirmary Blues
16.I Fought Piranhas

number 1

 ------------------------------------------
| Tab Definitions:				|
|  G5: 355xxx					|
|  F5: 133xxx					|
|  E5: 022xxx					|
|  D5: x577xx					|
| Bb5: 688xxx					|
|   b: Bend note less than a half step		|
|   h: Hammer onto note				|
|   ~: Vibrato					|
|B.N.: A strum Behind the Nut			|
|N.C.: No Chord played				|
 ------------------------------------------

INTRO:
e|------3-1------------3-1-------|
B|-------------------------------|
G|----------3-3b-----------3-3b--| (sustain)
D|-------------------------------|
A|-------------------------------|
E|-1-3------------1-3------------|

RIFF: Played 4x
e|-------------------|
B|-------------------|
G|-------5h7~-5-4----|
D|----------------5--|
A|---3-5-------------|
E|-3-----------------|

Played 2x: G5 F5 G5 F5

VERSE 1:
     G5    F5 G5
Now, Jimmy
             F5      G5             F5 G5 F5
Well, do you want an explosion now?
      D5 (N.C.) Bb5 (N.C.)
Yeah, Jimmy
               G5          F5 G5 F5
Do you want to explode now?
      G5     F5 G5
Yeah, monkey
        F5     G5       F5 G5 F5
Now you seeing red now?
     D5 (N.C) Bb5 (N.C.)
Yeah monkey
               G5      F5 G5 F5
Jumping on the bed now

G5  G5  G5  G5  G5  G5  G5  G5  G5  G5  G5  G5  G5  G5  G5  G5
Hoo Hoo Hoo Hoo Hoo Hoo Hoo Hoo Hoo Hoo Hoo Hoo Hoo Hoo Hoo Hoo!

RIFF

BRIDGE: P.M.
Played 4x: G5 F5 E5
      G5     F5 E5 G5
Green apples
       F5   E5  G5          F5 E5 G5 F5 E5
On the tree and growing now
      D5     Bb5
Green apples
             G5		   End P.M.
Are gonna be exploding now

(one, two, three, four)

Played 2x: G5 F5 G5 F5

     G5     F5 G5
Yeah monkey
        F5     G5       F5 G5 F5
Are you seeing red now?
     D5    B.N. Bb5
Yeah monkey
               G5      F5 G5 F5
Jumping on the bed now

G5  G5  G5  G5  G5  G5  G5  G5  G5  G5  G5  G5  G5  G5  G5  G5
Hoo Hoo Hoo Hoo Hoo Hoo Hoo Hoo Hoo Hoo Hoo Hoo Hoo Hoo Hoo Hoo!

G5


number 2


Open E Tuning
E B E G# B E

OR

Open D Tuning
D A D F# A D capo 2nd fret

 --------------------------------------------------------
| Tab Definitions:					 |
|  B: 777777 						 |
|  A: 555555 						 |
|  E: 000000 						 |
| F#: 222222 						 |
|  h: Hammer onto note					 |
|  b: Bend to note 					 |
|  /: Slide to note (with slide)			 |
|  ~: Tremolo						 |
| B*: Harmonic barred on the 7th fret (without slide)	 |
|P.M: Palm muting					 |
 --------------------------------------------------------

All chords barred using slide (unless otherwise noted)

INTRO/BREAK: Played 2x
    B 	                  A  B                  A
 E|----7-7-----7--7----------7-7-----7--7----------|
 B|----7-7-----7--7----------7-7-----7--7----------|
G#|----7-7-----7--7----------7-7-----7--7----------|
 E|----7-7-----7--7----------7-7-----7--7----------|
 B|-7-------7--------7-7--5-------7--------7-7--5--| Low notes
 E|-7-------7--------7-7--5-------7--------7-7--5--|    P.M.

VERSE 1:
    A B
	I can't walk the streets now
    A B
   	To convulate my mind
    A B
	Some pretty mama, she starts
    A B
	Breakin' down - stop breakin' down!
    E
 E|---------------------0-0-0-3-0-0--|
 B|---------------------0-0-0-3-0-0--|
G#|-0-0-0-------4-/-0---0-0-0-3-0-0--|
 E|-0-0-0--3-0--4-/-0---0-0-0-0-0-0--|
 B|-0-0-0--3-0--4-/-0----------------|
 E|-0-0-0--3-0--4-/-0----------------|
               Whoo!                 Stop breakin' down!

BREAK: Played 1x

CHORUS:
            F#                                E
The stuff I got is gonna bust your brains out
                                  B* (only once)
Well, it'll make you lose your mind

BREAK: Played 2x

VERSE 2:
    A B
	You saturday night women, you love to
    B
	Ape and clown
    A B
	You won't do nothin' but tear a good man's
    B
	Reputation down - stop breakin' down!
    E
 E|-0-0-0-3-0-0---------0-0-0-3/4-0-0--|
 B|-0-0-0-3-0-0---------0-0-0-3/4-0-0--|
G#|-0-0-0-3-0-0--0-/-7--0-0-0-0-0-0-0--|
 E|-0-0-0-0-0-0--0-/-7--0-0------------|
 B|-0-0----------0-/-7--0-0------------|
 E|-0-0----------0-/-7--0-0------------|
                 Whoo! 	              Stop breakin' down!

BREAK: Played 1x

CHORUS

BREAK

Ahhhh yeah

      B 	  A    B        C#    B                               E
 E|-5/7-7--5/7-7--5~--/7-7-7-7--9~--5/7-7--7-7-7--7/5-5/7-7/5-5/7-7-/-0-|
 B|-5/7-7--5/7-7--5~--/7-7-7-7--9~--5/7-7--7-7-7--7/5-5/7-7/5-5/7-7-/-0-|
G#|-5/7-7--5/7-7--5~--/7-7-7-7--9~--5/7-7--7-7-7--7/5-5/7-7/5-5/7-7-/-0-|
 E|-5/7-7--5/7-7--5~--/7-7-7-7--9~--5/7-7--7-7-7--7/5-5/7-7/5-5/7-7-/-0-|
 B|---------------------------------------------------------------------|
 E|---------------------------------------------------------------------|

    E
 E|-0-0-0-3b-0-0--0-0-0-0-0-0-0-3-3-0-0-0-0--|
 B|-0-0-0-0--0-0--5-3-5-3-5-3-0-0-0-0-3-5-0--|
G#|-0-0-0-0--0-0--0-0-0-0-0-0-0-0-0-0-0-0-2~-|
 E|-0-0--------------------------------------|
 B|-0-0--------------------------------------|
 E|-0-0--------------------------------------|

      B                                F# (P.M.)          A (P.M.)
 E|-0/7-7--7-7---7/0--0/7-7--7-7--5/7----------------------------------------|
 B|-0/7-7--7-7---7/0--0/7-7--7-7--5/7----------------------------------------|
G#|-0/7-7--7-7---7/0--0/7-7--7-7--5/7----------------------------------------|
 E|-0/7-7--7-7---7/0--0/7-7--7-7--5/7--2-2-2-2-2-2-2-2-2--5-5-5-5-5-5-5-5-5--|
 B|------------------------------------2-2-2-2-2-2-2-2-2--5-5-5-5-5-5-5-5-5--|
 E|------------------------------------2-2-2-2-2-2-2-2-2--5-5-5-5-5-5-5-5-5--|

BREAK

VERSE 3:
   A B
	I gave my baby
   A B
	The ninety-ninth degree
   A B                                    B
	She jumped up and throwed a pistol down on me
             (F#)
	Stop breakin' down!

    E
 E|-0-0-0-3-0-0--3b--0-0-2-3-0-0-0-0---|
 B|-0-0-0-3-0-0--3b--0-0-0-0-0-0-0-2b--|
G#|-0-0-0-3-0-0--3b--0-0-0-0-0-0-0-0---|
 E|-0-0-0-0-0-0--0---0-0-0-0-0-0-0-0---|
 B|-0-0-0-0-0-0------------------------|
 E|-0-0-0-0-0-0------------------------|
                     Ye-ah!           Stop breakin' down!

BREAK

CHORUS

                      B
 E|----------------------|
 B|----------------------|
G#|----------------------|
 E|-------------------7--|
 B|--------0-0--------7--|
 E|-7b/0-0------5h3-5-7--|


number 4


 -------------------------------
| Tab Definitions:		 |
|  G5: 355xxx			 |
|  F5: 133xxx			 |
| F#5: 244xxx			 |
| Bb5: x133xx			 |
|  B5: x244xx			 |
|  C5: x355xx			 |
| C#5: x466xx			 |
|  D5: x577xx			 |
|B.N.: A strum behind the nut	 |
|N.C.: No Chord played		 |
 -------------------------------

INTRO: B.N. B.N. B.N.

CHORUS:
 G5              F5
   The Big Three killed my baby
 G5               F5
   No money in my hand again
 G5              F5
   The Big Three killed my baby
 G5                F5
   Nobody's coming home again

VERSE 1:
G5 G5 G5 N.C.
	Their ideas make me wanna spit
F5 F5 F5 N.C.
	A hundred dollars goes down the pit
G5 G5 G5 N.C.
	Thirty-thousand wheels are rollin'
F5 F5 F5 N.C.
	And my stick shift hands are swollen
G5 G5 G5 N.C.
	Everything involved is shady
F5 F5 F5 N.C.                   G5
	The Big Three killed my baby!
     F5            G5    F5
        Yeah, yeah yeah!

CHORUS

BRIDGE:
G5 G5 G5 N.C.
	Why don't you take the day off and try to repair
F5 F5 F5 N.C.
	A billion others don't seem to care
G5 G5 G5 N.C.
	Better ideas are stuck in the mud
F5 F5 F5 N.C.
	The motor's runnin' on Tucker's` blood
	`Preston Tucker, whose revolutionary automobile shop was run out of
G5 G5 G5
business by the "Big Three" Detroit automobile manufacturers
	Don't let 'em tell you the future's electric
	(Ford, Chrysler and GM)
Bb5 Bb5 Bb5
	'Cause gasoline's not measured in metric
B5 B5 B5
	Thirty-thousand wheels are spinnin'
C5 C5 C5
	And oil company faces are grinnin'
C#5 C#5 C#5
	Now my hands are turnin' red
D5 D5 D5
	And I found out my baby is dead!
   G5 F5             G5   F5
	Yeah, yeah yeah!

CHORUS

VERSE 2:
Well I've said it now, nothing's changed
People are burnin' for pocket change
And creative minds are lazy
And the Big Three killed baby!
Yeah yeah yeah!

VERSE 3:
      G5                 F5
	And my baby's my common sense
      G5                         F5
	So don't feed me planned obsolescence
      G5                  F5
	Yeah my baby's my common sense
      G5                         F5
	So don't feed me planned obsolescence (yeah!)
      G5 N.C.
        I'm about to have another blow-up!
F5 F5 F5 F#5      G5
             Yeah
	N.C.
	I'm about to have another blow-up!
F5 F5 F5 F#5 G5


number 5


Open E Tuning
E B E G# B E

OR

Open D Tuning
D A D F# A D capo 2nd fret

Jack is playing rhythm guitar through the left channel on
this one, and Johnny Walker (The Soledad Brothers) is playing
the
main slide guiter through the right. Fortunately, Jack plays so
little that the two can be more or less combined.

 ------------------------------------------
| Tab Definitions:				 |
| E5: 000xxx 					 |
| G5: 333xxx					 |
| A5: 555xxx					 |
| D5: 10|10|10|x|x|x				 |
|  E: 12|12|12|12|12|12 (with slide)		 |
|  D: 10|10|10|10|10|10 (with slide)		 |
| C#: 999999 (with slide)			 |
|  b: Bend note less than a half step      |
|  /: Slide to note				 |
|  ~: Vibrato with slide			 |
| (): Ghost note (sounded but not struck)	 |
 --------------------------------------------
INTRO:
Played with slide
 E|----------------------------12---------------10---------------------------9---------------|
 B|----------12-------------12----12---------10----10------------10------------9-------------|
G#|-------12----12----10/12----------12-8/10----------10------10----10-----9-----9-------9/--|
 E|-10/12----------12------------------------------------8/10----------7/9---------7/9-9-----|
 B|------------------------------------------------------------------------------------------|
 E|------------------------------------------------------------------------------------------|

BREAK 1:
Played 2x
E5 G5 A5 G5 A5 G5

VERSE 1:
E
There's a story
D
I would like to tell
C#
My problem is
     G5  A5  G5   A5  E5
It's one you know too well
     G5  A5  G5   A5  E5
It's one you know too well

VERSE 2:
Ms. Suzy Lee
The one I'm speaking of
The question is
Is she the one I love?
Is she the one I love? (alright)

BREAK 2: (Johnny is repeating the something similar to the
INTRO slide pattern quickly over the chords Jack is playing)
A5 / D5 / G5

   G5  A5  G5  A5 E5    /E (high notes)
Is she the one I  love?
   G5  A5  G5  A5 E5    /E
Is she the one I  love?

SOLO:
    E                               D                                       C#
 E|-------12-----10/12-12-12~---------------/10-0-0-(0)---------------------------9-------------|
 B|----------12-----------12~-(0)-------------------------------------(0)-----------9-----------|
G#|------------------------------------10-------------------------------------9-------9-7/9-9/--|
 E|-10/12-------------------------8/10----10----------8/10-10-10-8/10-----7/9---9-------7/9-9/--|
 B|---------------------------------------------------------------------------------------------|
 E|---------------------------------------------------------------------------------------------|

BREAK 1: Played 1x

 E|-0-3b-0-5b-0--|
 B|--------------|
G#|--------------|
 E|--------------|
 B|--------------|
 E|--------------|

BREAK 1

VERSE 3:
She sent me flowers
With her tears burned inside
And you know what I'd do
I would run and hide
I would run and hide

VERSE 4:
In the paper
On it was my name
With the question
"Do you feel the same?"
"Do you feel the same?"

BREAK 2

BREAK 1: Played 2x

VERSE 5:
To end this tale
The one I'm speaking of
I wish I had an answer but I just don't know
Is this really love?
Is this really love?

BREAK 2

Is this really love?
Is this really love?

BREAK 1: Played 1x

 E|-------12-(/0)--------|
 B|-10/12----------------|
G#|--------------(12/0)--|
 E|--------------(12/0)--|
 B|--------------(12/0)--|
 E|----------------------|

number 5


-------------------------------------------
| Tab Definitions:				|
|"Bb4": x10xxx					|
| "Bm": x20xxx					|
|    G: 320003					|
|  C/G: x32014					|
| G/F#: 220003					|
|    F: 133211					|
|    *: Knocking on the body of the guitar |
 ------------------------------------------

* * *

INTRO AND BREAK: Played 2x
   Bb4  Bm   G
e|------------------------|
B|------------------------|
G|-----------0-0-0-0-0-0--|
D|-0----0----0-0-0-0-0-0--|
A|-1----2----2-2-2-2-2-2--|
E|-----------3-3-3-3-3-3--|


VERSE 1:
Bb4 Bm G                     Bb4  Bm
	  Sugar never tasted so   good
         G                   Bb4  Bm
      	  Sugar never tasted so   good
         G                           C  * * *
	  Sugar never tasted good to me       yeah

BREAK

         G                       Bb4  Bm
          Until her eyes crossed ov - er
         G                       Bb4  Bm
	  Until her mind crossed ov - er
         G                            C
	  Until her soul fell next to me

BREAK: Played 1x

Now,
CHORUS:
G                      Bb4    C      (Let chords ring)
If the wrinkle that is in your brain
    G        Bb4    C
Has given ya quite a sting
G            Bb4          C
Your fingers have become a crane
G                Bb4   C
Pulling on these puppet strings

BREAK: Played 2x
Yeah,

G

BRIDGE:
G G/F# F
	What a feeling that's begun
       *       *       *      G     Bb4 Bm G
	What a feeling that's begun
G G/F# F
	What a feeling that's begun
                              G
	What a feeling that's begun

BREAK: Played 1x

Alright,
VERSE 2:
I felt just like a baby
Until I held a baby
What a fool this boy can be, yeah
And her thoughts like a daisy's
How my mind gets lazy
I must've been crazy not to see

Alright,
CHORUS:
G                      Bb4     C
If the wrinkle that is in your brain
    G        Bb4     C
Has given ya quite a sting
G            Bb4           C
Your fingers have become a crane
G            Bb4           C
Your fingers have become a crane
G            Bb4           C
Your fingers have become a crane
G                Bb4    C
Pulling on these puppet strings

* * *

VERSE 3:
C Bb4 G                    C  Bb4
	Water never tasted so good
                           C  Bb4
	Water never tasted so good
                                   C
	Water never tasted good to me
G


number 6

---------------------------------------------
| Tab Definitions:				|
|  Am: x02210					|
|   E: 022100					|
|  B5: x422xx					|
|  D5: x577xx					|
| D#5: x699xx					|
|  E5: x977xx					|
|   h: Hammer onto note				|
|   p: Pull off of note				|
|   b: Bend note less than a half step		|
|   /: Slide to note				|
|   ~: Slow bending vibrato with whammy bar	|
|P.M.: Palm Muting				|
|N.C.: No Chord played				|
 --------------------------------------------

VERSE 1:
                      Am
And if I'm wasting my time
                      E
Then nothing could be better
                    B5
Than hanging on the line
                   D5             E   D5    E
And waiting for an honest word forever (yeah)

                    Am (some P.M.)               E                          B5 D5   D#5  
 E5     E
e|-0-3-5-5/7-5-3-0----0----------------------------0~--------------------------------------------------|
B|--------------------1----------------------------0~-----------3--------------------------------------|
G|--------------------2-------------------------------------2h4---4p2p0-2-0-4--7-7--8-8-8--9-----------|
D|------------------2-2--------------------------2--------------------------4--7-7--8-8-8--9--------2--|
A|------------------0-0--------------------------2--------------------------2--5-5--6-6-6--7--------2--|
E|-----------------------0h3-3h5-5h7-7p5p3p0-3b--0----0-3-0-----------------------------------3-3-0-0--|

VERSE 2:
N.C.                      Am
And if you're saying gooodbye
                          E
Please don't you think me bitter
                    B5
For recalling every rhyme
                             D5                 E      D5    E
From the book, the page, the line, the word, the letter (yeah)

                             Am                       E                              B5 
  D#5    E  D5 E  D  E
e|-0-3-5-5/7-5h7p5-3-3h5p3-0-0~--------------------------0~--0-----3p0---------------------------------------------|
B|---------------------------1~--------------------------------3p0---------3---------------------------------------|
G|---------------------------2~----------------------------------------3h4---4-2bp0--4--7-7--8-8-8-----7-----7-----|
D|---------------------------2~------------------------------------------------------4--7-7--8-8-8--2--7--2--7--2--|
A|---------------------------0~------------------------------------------------------2--5-5--6-6-6--2--5--2--5--2--|
E|-------------------------------0h3-3h5-5h7-7-3-5-3b-0---------------------------------------------0-----0-----0--|

VERSE 3:
                           Am
Well, the window's turning blue
                     E
And the water's ever-flowing
                     B5
And I hope I'm not a fool
                  D5              E    D5 E
For laughing at myself as you are going


number 7

-----------------------------------------
| Tab Definitions:				 |
|  E5: 022xxx					 |
| E57: x799xx					 |
|  B5: 799xxx					 |
| Bb5: 688xxx					 |
|  A5: 577xxx					 |
|  G5: 355xxx					 |
| E/G: 322100					 |
|E/F#: 222100					 |
|   X: Full muting of all strings		 |
|   /: Slide to note    		  |
 -----------------------------------------

INTRO: Played 2x (Only bass notes struck)
Rhythm: 1  +   2  +  3   +   4  +
Chords:	E5 E57 B5 B5 Bb5 Bb5 A5 G5

VERSE 1: (Only bass notes)
E5 E57 B5 B5 Bb5 Bb5 A5 G5 E5 E57 B5 B5 Bb5 Bb5 A5 G5 E5
	                Outside                    my door
E57 B5 B5 Bb5 Bb5 A5 G5 E5    E57 B5 B5 Bb5 Bb5 A5 G5 E5
	             I  locked,		           I  loaded
E57 B5 B5 Bb5 Bb5 A5  G5   E5
		  And this sound
E57 B5 B5 Bb5 Bb5      A5  G5    E5   G5  E5 G5 E5 G5    E5 G5
		  That you might know well          (yeah)
	E5 G5 E5 G5 E5 G5 E5 G5 E5
	Know well

BREAK 1:
E5 E57 B5 B5 Bb5 Bb5 A5 G5 E5 E57 B5 B5 Bb5 Bb5 A5 G5
                           Whoo!

VERSE 2:
Wheels turnin'
Scratching and burnin'  yeah
I saw guns, tanks
Cannon
Cannon  yeah!

BREAK 2: Played 2x
E5 G5 E5 G5

BREAK 3:
Rhythm:	1  2  +  3  4  1  2  3  4  1
Chords:	E5 G5 G5 E5 G5 E5 G5 E5 G5 E5

CHORUS:
E (P.M.)
Tell me who's that writin'
John the Revelator
Tell me who's that writin'
John the Revelator
Who's that writin'
                             E/G         E/F#  E
John the Revelator wrote the Book of the Seven Seals

VERSE 3:
E (P.M)
Christ went down on Easter mornin'
Mary Mother` went down to see
`Son House sings "Mary Margaret"
                          E/G        E/F# E
"Go tell my disciples, to meet me in Gali-lee"

CHORUS:
Who's the writer?
John the Revelator
Tell me who's that writin'
John the Revelator
Tell me who's that writer
John the Revelator wrote the Book of the Seven Seals
Yeah!

BREAK 1: Played 2x

VERSE 4: (Played like VERSE 1 & 2)
Lord of mine
High Command
I've been evil
Evil

X X
   yeah

BREAK 4:
e|-/12-12-10-10-9-9-8-8--8/12-12--12/10-10-10/9-9-9/8-8--/12-12-12-10-10-10-9-9-9-8-8-8--|
B|---------------------------------------------------------------------------------------|
G|---------------------------------------------------------------------------------------|
D|---------------------------------------------------------------------------------------|
A|---------------------------------------------------------------------------------------|
E|---------------------------------------------------------------------------------------|

BREAK 2

E
Evil!


number 8

 -------------------------------------------------------------
| Tab Definitions:
|  E5: 022xxx
|  G5: 355xxx
|  A5: 577xxx
|  B5: 799xxx
| F#5: 244xxx
|  B*: Harmonic on the high e string, 7th fret
|   b: Bend (or relax from bend) to next note
|P.M.: Palm Muting
|N.C.: No Chord played
|   T: Tremolo (alternating up and down picking quickly)
|   <: Increasing tempo
 -------------------------------------------------------------

A second guitar comes in at odd times, but it's in unison to Guitar
1, so it's not really worth tabbing.
There is very slight P.M. throughout.

INTRO: (Guitar right channel, vocals left)
e|------------|
B|------------|
G|-3b--5b--3--| (three bent to five, then relaxed down to three)
D|------------|
A|------------|
E|------------|
"Wan Two Free For"

BREAK 1: Played 2x
Rhythm: 1  2  3  4  +  1  +  2  3  4
Chords:	E5 G5 E5 G5 E5    E5 G5 E5 G5

VERSE 1:
   G5 E5     G5       E5 G5 E5 G5 E5
Maybe Jasper does the As-tro
   G5 E5     G5       E5 G5 E5 G5 E5
Maybe Jasper does the As-tro
   G5 E5     G5       E5 G5   E5 G5
Maybe Jasper does the As-tro, As-tro

Rhythm:	1  2  +  3  4  1  2  3  +  4  1  2
Chords:	E5 G5 E5 A5          B5 B5 A5 G5 F#5

BREAK 1: Played 1x

VERSE 2:
Maybe Lilly does the Astro
Maybe Lilly does the Astro
Maybe Lilly does the Astro, Astro

BREAK 2:
Rhythm: 1  2  3  4  1  2  3  4  1  2  3  4  1  2  3  4  1  2  3  4  1
Chords:	A5          G5 E5 N.C.     A5          G5 E5 N.C.     A5
Words:                                                   Whoo!

2  3  4  1  2  3  4  1  2  3  4  +  1  2  3
   G5 E5 N.C.     B5    B*    B5 B5 A5 G5 F#5
              Hey!

BREAK 1

VERSE 3:
Well, maybe Jackson does the Astro
Maybe Jackson does the Astro
Maybe Jackson does the Astro Astro

Rhythm: 1  2  3  4  1  2    3  4   1  2  3  4  +  1  +  2  +  3  +
Chords: A5       G5 A5 N.C. G5 F#5 E5 G5 E5 G  E5    G5 G5 G5 E5 G5

VERSE 4:
G5    E5    G5       E5 G5  E5 G5 G5 G5 E5
Maybe Momma does the As-tro
   G5 E5    G5       E5 G5  E5 G5 G5 G5 E5
Maybe Momma does the As-tro,
   G5 E5    G5       E5 G5   E5 G5  E5
Maybe Momma does the As-tro, As-tro.

BREAK 2 (without words and B*)

P.M.
Played 4x
Rhythm: 1  2  3  4  +
Chords: E5 E5 E5 E5 G5

VERSE 5:
     E5 G5 E5     E5       E5 E5 G5 E5 E5 E5
Well maybe Tesla` does the As-tro                   `Nikola Tesla, famous electrician
   E5 G5 E5  E5       E5 E5  G5 E5 E5 E5
Maybe Tesla  does the As-tro
   E5 G5 E5 E5     E5 E5 G5 E5 E5 E5 E5
Maybe Ed-is-on` is A  C  -  D  C                    `Thomas Edison, see above

   A
e|---3b---0---0-3-0---0---------------------------|
B|----------3-------3-0-3b---2b-------0--0--0--0--|
G|-2----2-----------2---3b---2b--0----0--0--0--0--|
D|-2-------------------(3b)-(2b)-0-2--------------|
A|-0----------------------------------------------|
E|------------------------------------------------|

Slow Tempo
Played 4x
Rhythm: 1  2  3  4  +  1  +  2  3  4
Chords: E5 G5 E5 G5 G5    G5 E5 G5 E5

SOLO: (over ryhthm guitar, feedback comes in a few seconds prior)
                                                                                      T< 
T
e|---------------------------------------------------------------------------------------------------|
B|-10b12-b12-b12-b12-b12-b12-b12-b12-10b12-b12-b12-b12-b12-b12-b12-b12-10p8-5-5-5-8-8-8-8/18---------|
G|---------------------------------------------------------------------------------------------------|
D|---------------------------------------------------------------------------------------------------|
A|---------------------------------------------------------------------------------------------------|
E|---------------------------------------------------------------------------------------------18/0--|

Under end of SOLO:
A5 B5 B5 A5 G5 F#5 E5


number 9


-----------------------------------------------------
| Tab Definitions:					|
| A5: x022xxx (during verses) 577xxx (during breaks)	|
| C5: x355xx						|
| D5: x577xx						|
| B5: x244xx						|
|Bb5: x133xx						|
| F5: 133xxx						|
|F#5: 244xxx						|
|G#5: 466xxx						|
 ----------------------------------------------------

INTRO: Feedback

BREAK 1: Played 2x
Rhythm:	1  2  3  4  1  2  3  +  4
Chords:	A5 C5 D5 C5 A5 C5    D5 C5

VERSE 1: (rhythm changes to 1, 2, 3, 4)
               A5          C5     D5          C5
Well, have you been to the broken bricks girl?
      A5               C5      D5   C5
Snuck down through the cyclone fence
         A5      C5           D5       C5
Past the caution tape and the security gate
    A5           C5        D5    C5
Backwards to the breakroom bench
      A5               C5               D5        C5
Well, there's a little corner where you first got kissed
              A5         C5                D5      C5
And felt your boyfriends fist and made the company list
    A5               C5              D5      C5
And there's a little spot where your dad ate lunch
         A5             C5        D5          C5
And your brother landed his first punch yeah, yeah, yeah

BREAK 2: Played 2x
Rhythm:	1  2  3  4  1  2  3  +  4   +
Chords:	A5 G5 A5 G5 A5 G5 C5 B5 Bb5 A5

BREAK 1

VERSE 2:
Well have you been to the broken bricks girl
Seen the barrels that they left behind?
Seen the machine that cut aluminium clean
And got tape from the caution sign
Broken tooth window panes
Just a rusty-colored rain that drives a man insane
You try to jump over water but you land in oil
Climb the ladder up a broken crane yeah, yeah, yeah

BREAK 3:
Played 2x:
Rhythm:	1  2  3  4  1  2  3  +   4  +
Chords:	A5 G5 A5 G5 A5 G5 F5 F#5 G5 G#5

Played 2x:
Rhythm:	1  2  3  +  4
Chords:	A5 C5    D5 E5

VERSE 3: (Jack alternates sporatically between 1, 2, 3, 4 and 1, 2 3 + 4 rhythm)
      A5        C5           D5    E5
Don't go to the broken bricks girl
             A5             C5        D5 E5
It's not the place that you want to be
A5              C5               D5        E5
Think about the spot your father spent his life
    A5               C5         D5 E5
Demolition calls it "Building C"
    A5               C5          D5  E5
Demolition calls it "Building C," now
    A5               C5         D5  E5
Demolition calls it "Building C" now    yeah
A5


number 9


---------------------------------------
| Tab Definitions:			 |
| E5: 022xxx				 |
| A5: x022xx				 |
| B5: x244xx				 |
|  E: 022100				 |
|  h: Hammer onto note			 |
|  p: Pull off of note			 |
|  /: Slide to note			 |
|  b: Bend note less than a half step   |
|  x: Play muted string			 |
 ---------------------------------------

Jack plays two guitar parts in this song, but they both come out of the
same channel. His rhythm guitar is clean with a lot of gain, and his lead guitar
is at first very distorted and then sounds more like the rhythm guitar in tonality.

INTRO: P.M.
   E5
e|------------------|
B|------------------|
G|------------------|
D|------------------|
A|-----------x-x-x--|
E|-0-0-0-0-0-x-x-x--|

VERSE 1: Rhytm guitar
E5 E5 E5 E5 E5
               E5 E5 E5 E5 E5
When I hear my name
             E5 E5 E5 E5 E5
I wanna disappear
            A5 A5 A5 A5 A5
Wa-ah ah-oh
            E5 E5 E5 E5 E5
Wa-ah ah-oh
            B5 B5 B5 B5 B5 B5 B5 B5 B5 B5 B5 B5 B5
Wa-ah ah-oh

BREAK 1: Lead Guitar (with Whammy pedal, played one octave down)
Played 2x
                         E5
e|-------10-------------------------|
B|-10h12----12p10p8-10-8------------|
G|----------------------------------|
D|-----------------------2-2-2-2-2--|
A|-----------------------2-2-2-2-2--|
E|-----------------------0-0-0-0-0--|

VERSE 2:
When I see my face
I wanna disappear
Wa-ah ah-oh
Wa-ah ah-oh
Wa-ah ah-oh oh

BREAK 2:
   E
e|--------0---0---0-0-3b-0---0---0--|
B|----------3------------------3----|
G|----------------------------------|
D|----------------------------------|
A|--------------2----------2--------|
E|-0-3b-0-------0----------0--------|

VERSE 3:
Play over words:
   E5                                 A5         E5
e|--------0---0---0-0-3-0---0---0--------3b--------0---0---3b--|
B|----------3-----------------3----------------------3---------|
G|-------------------------------------0------0----------------|
D|-------------------------------------0----0-0----------2-----|
A|--------------2---------2-------2----2----2-2--2-------2-----|
E|-0-3b-0-------0---------0-------0-3b-----------0-------0-----|

When I see my face
I wanna disappear
Wa-oh ah-oh
Wa-oh ah-oh
Mm mm-mm mm

B5

BREAK 3:
E5 chords played by rhythm guitar
Everything else played by lead guitar
                                         E5                        E5
e|-------------------------------------------------0----0--3p0-0-0--------0-----0-3p0-0------------|
B|-----3---------3---------3---------3---------------3b---------------------3p0---------3p0-0------|
G|-2/4---4---2/4---4---2/4---4---2/4---4------------------------------------------------------2bp0-|
D|---------------------------------------2-2-2-2-2-----------------2-2-2-2-2-----------------------|
A|---------------------------------------2-2-2-2-2-----------------2-2-2-2-2-----------------------|
E|---------------------------------------0-0-0-0-0-----------------0-0-0-0-0-----------------------|
   E5
e|-----------------------------|
B|------------3----------------|
G|--------2h4---2p0-0-2-0------|
D|-2-2-2-2-2--------------2-0--|
A|-2-2-2-2-2-------------------|
E|-0-0-0-0-0-------------------|

VERSE 1

E5


number 11

---------------------------------------------------
| Tab Definitions:					|
|    E: 022100						|
|Esus4: 022200						|
|  E/G: 322100						|
| E/F#: 222100						|
|   B5: x244xx (799xxx when it slides from a G5)   |
|   G5: 355xxx						|
|   A5: 577xxx						|
|    h: Hammer onto note				|
|    p: Pull off of note				|
 --------------------------------------------------

Chord Progression:
   E    Esus4   E    Esus4
e|------------------------|
B|------------------------|
G|--(1)-2p1-2p1--(1)-2p1--|
D|------------------------|
A|------------------------|
E|-0------------0---------|

INTRO: Played 4x
E Esus4 E Esus4

RIFF:
e|------------------|
B|------------------|
G|---------------0--|
D|-------0---0h2----|
A|---------2--------|
E|-0h2h3------------|

VERSE 1:
E         Esus4       E      Esus4
Well, somebody walked up to me
      E/G         E/F#    E  Esus4 E Esus4
But I didn't know what to do
E            Esus4     E         Esus4
And then somebody said hello to me
      E/G         E/F#    E  Esus4 E Esus4 E Esus4 E Esus4
But I didn't know what to do
B5
Because I think that my words could get twisted

So I bend my back over, take a gulp, be funny
        E/G                  E/F#  E  Esus4 E Esus4 E Esus4 E Esus4 E
Cause I know there's nothing I can do

G5 / B5 / E Esus4 E Esus4 E Esus4

RIFF

VERSE 2:
Then my mother tried to pick me up
'Cause I was sittin' down on the ground
Something forced my baby eyes come open
But I couldn't make out the sound
It doesn't matter 'cause my eyes are lying
And they don't have emotion, don't wanna be social
Can't take it when they hate me
But I know there's nothing I can do

BRIDGE:
E G5 A5

When my thoughts start to feel like mine
    A5                                       E Esus4 E Esus4 E Esus4 E G5 A5
But Take it from me it seems to happen every time

And the feelings that are fine for you
        A5                                        E Esus4 E
There's somebody there who doesn't think they are true
            Esus4     B5
So think of something new
                        E Esus4 E Esus4 E Esus4
There's nothing left to do

RIFF

VERSE 3:
And then my idols walk next to me
I look up at them, they fade away
It's a destruction of a mystery
The more I listen to what they say
So does that mean that there's no more doin'
And there's no more thinkin', and there's no more feeling
'Cause there's no right opinion
Can you tell me what I'm supposed to do?

Esus4 E Esus4 E (feedback)


number 12

----------------------------------
| Tab Definitions:			 |
|  A5: 577xxx				 |
|  G5: 355xxx				 |
|  C5: x355xx				 |
|  D5: x577xx				 |
|D5/A: 5577xx				 |
|   h: Hammer onto note			 |
|   p: Pull off of note			 |
|   b: Bend to note		   |
|   ~: Vibrato (slowly in chords)	 |
 ----------------------------------

INTRO: Feedback

BREAK 1:
Played 2x:
   A5    G5 A5
e|---------------------------------------|
B|-------------5---5--7-5-7b8-7-5--------|
G|-------------5---5--7-5-7b8-7-5-7-5----|
D|-7--7--5--7----7--------------------7--|
A|-7--7--5--7----------------------------|
E|-5--5--3--5----------------------------|

Rhythm: 1  2  3  4  +  1  2  3  4  1
Chords: A5 A5 G5 A5 G5 A5~         G5~

VERSE 1:
A5                  G5
Tuesday morning now
                             A5
I gotta have somewhere to go
                    G5
I call up Tommy now
                            A5
I call him on the telephone
                                        G5
Won't you wake up and come with me, now
                               A5
I'm going to the pawn and loan
                          G5
Walkin' down thirty-three
                         A5 C5
Walkin' down thirty-'o

Yeah!

BREAK 1

VERSE 2:
Well, what am I supposed to think?
I drop a nickel in the sink
I love people like a brother, now
But I'm not gonna be their mother, now
What if someone walked up to me and
Like an apple cut right through me?
I'm not just gonna stand there grinnin'
                                             A5     G5 A5
'Cause I'm not the one who's sinnin' -- screwdriver
          G5
Hoo, hoo
Hooo, hoo

BREAK 2:
   A5   N.C.   N.C.
e|----------------------------------------------|
B|-------------------------------7b8-7p5-7p5----|
G|---------------------7b8-------7b8-7p5-7p5----|
D|-7-7-7--7-7-7--7-7-7-----7-7-7-------------7--|
A|-7-7-7--7-7-7--7-7-7-----7-7-7----------------|
E|-5-5-5--5-5-5--5-5-5-----5-5-5----------------|

BREAK 1: Played 1x

VERSE 3:
Now that you have heard my story, now
I've got a little ending to it, now
Whenever you go out alone
Take a little dog a bone
And think about your little sister
                                          A5     C5  A5  C5
And then you got to drive it home -- screwdriver

BRIDGE:
A5                               G5
I got a little feeling goin' now
                                 A5
I got a little feeling goin' now
                                 G5
I got a little feeling goin' now
                                 A5
I got a little feeling goin' now
                                 G5
I got a little feeling goin' now
                                 A5
I got a little feeling goin' now
                                 C5
I got a little feeling goin' now
	                         A5
I got a little feeling goin' now
                                 C5
I got a little feeling goin' now
	                         A5
I got a little feeling goin' now
   			         C5
I got a little feeling goin' now

Now! Now!

   Now!
e|-------------------------------------|
B|-------------5---5-7p5-7b8----7p5----|
G|-------------5---5-7p5-7b8-7~-7p5----|
D|-7--7--5--7----7------------------7--|
A|-7--7--5--7--------------------------|
E|-5--5--3--5--------------------------|

BREAK: Played 1x

A5 A5 A5
D5/A A5 A5
D5/A


nuber 13

---------------------------------------
| Tab Definitions:			 |
| Am: x02210				 |
|  G: 320001				 |
|  E: 022100				 |
|  F: 133211				 |
|  b: Bend note less than a half step   |
| (): Heavily muted noted		 |
 ---------------------------------------

INTRO:
         Am  G                                         E (P.M.)    G
e|--------------------------------------------------------------------|
B|--------------------------------------------------------------------|
G|-------2------------------------------------------------------------|
D|-------2------(/7)-7h9-7--/5-5/3--/5-5h7-5--3-3-3p2----2-2-2-2-2----|
A|-----0-0---2-----------------------------------------2-2-2-2-2-2----|
E|-0h3-------3-------------------------------------------0-0-0-0-0-3--|

VERSE 1: P.M., hitting bass and treble notes alternately
      Am
	Your breath is sweet and weak, your eyes like
       G
	Two jewels in the sky
       F
	Your back is straight, your hair is smooth
               E
	On the pillow where you lie
RIFF 1:
e|--------|
B|--------|
G|--------|
D|-0-1-2--|
A|--------|
E|--------|

      Am
	But I don't sense affection
       G
	No gratitude, no love
       F
        Your loyalty is not to me
            E
        But to the stars above

CHORUS:
   F N.C.                                  E
	One more cup of coffee for the road
   F N.C.                                E
	One more cup of coffee 'fore I go
     N.C.               Am
	To the valley below.

BREAK:
Am G F E

VERSE 2:
Your daddy, he's an outlaw
And a wanderer by trade
He'll teach you how to pick and choose
And how to throw the blade [no riff]
He oversees his kingdom
So no stranger does intrude
His voice it trembles as he calls out
For another plate of food

CHORUS

BREAK

VERSE 3:
Your sister sees the future
Like your mother and yourself
You don't know how to read or write
There's no books upon your shelf
But your pleasure knows no limits
Your voice is like a meadowlark
Your heart is like the ocean
Mysterious and dark

CHORUS

Am (cut off sharply with an echo)

number 14

-------------------------------------
| Tab Definitions:			  |
| A5: 577xxx				  |
| G5: 355xxx				  |
| B5: x244xx				  |
| D5: x577xx				  |
|  b: Bend to note			  |
|  /: Slide to note			  |
|  X: All strings muted and struck	  |
 -------------------------------------

It sounds like Jack recorded the second guitar playing riffs in
the background with either a slide or whammy pedal,
and then reversed it, for the following reasons:
1) The notes get louder towards the end of each riff, as opposed to dying away
2) The frets are inaudible

Second guitar settings:
Amp Settings: High bass, low middle and treble, medium gain and lots of reverb.
Guitar Settings: Pickups forward, low tone.

GUITAR 2 RIFFS (remember, these won't sound right unless they are reversed):
   RIFF 1    RIFF 2            RIFF 3            RIFF 4
e|-5/17------------------------------------------3h5b6-b5p3p0--|
B|-----------20/7-7-7-7/3------20/0----------------------------|
G|-------------------------------------------------------------|
D|-------------------------------------------------------------|
A|----------------------------------4-4-4/0--------------------|
E|-------------------------------------------------------------|

INTRO:
A5 G5 A5 X X

BREAK: Played 3x
A5 G5 A5

RIFF 1: Played 2x

VERSE 1: P.M.
A5                               RIFF 1
There's a little girl who says, "Ping! Ping! Pop!"`
`A children's joke that doesn't "bear repeating"
			        RIFF 1
There's a little girl who says, "Ping! Ping! Pop!"
   G5 RIFF 1
Hello
      A5 RIFF 2
Oh, oh

RIFF 1

VERSE 2:
There's a little boy with a spider in his hand
There's a little boy with a spider in his hand
      RIFF 3
Hello
Oh, oh

RIFF 4

BREAK: Played 4x

VERSE 3:
There's a little girl with the red shoes on
There's a little girl with the red shoes on
Hello
Oh, oh

VERSE 4:
There's a little boy with twenty-five cents
There's a little boy with twenty-five cents
      RIFF 4
Hello
Oh, oh

VERSE 5: Combinations of RIFF 1 in this verse
And there's a little girl with a tiger on her bed
There's a little girl with a tiger on her bed
Hello
Oh, oh

BREAK

VERSE 6:
There's a little boy with nothin' on his mind
There's a little boy with nothin' on his mind
Hello


number 15

-------------------------------------
| Tab Definitions:			 |
|Bb5: 688xxx				 |
| A5: 577xxx				 |
| G5: 355xxx				 |
|  x: Heavily muted string		 |
|  X: All strings muted and struck	 |
|  p: Pull off note			 |
|  b: Bend to note		      |
 -------------------------------------

INTRO and BREAK 1: Played 4x
Bb5 A5 G5 X X

VERSE 1:
                      Bb5  A5 G5
Yeah, they're lookin' at me
           Bb5 A5 G5
Nowhere to go
                 Bb5   A5 G5
Oh, what they're sayin'
             Bb5 A5 G5
I just don't know
          Bb5      A5 G5
The floor below me
             Bb5 A5 G5
The ceiling above
            Bb5   A5 G5
And I'm the middle
With nobody to love
Nobody to love
Nobody to love
Nobody to love

Yeah,

BREAK 2:
                  G5                  G5      G5      G5                G5               
  G5
e|-3-2-3-2-3-2b3-------------------------------------------3-3-2-3-2b3-----------------------------|
B|-x-x-x-x-x-x-------------------------------------------------------------------------------------|
G|-----------------------3-0-3-5b6b5-----3b4-----3b4-----x---------------------5p3p0-5p3p0---------|
D|----------------5-5-5---------------3-------3-------3-----------------3-3-3---------------3-3-3--|
A|----------------5-5-5---------------3-------3-------3-----------------3-3-3---------------3-3-3--|
E|----------------3-3-3---------------5-------5-------5-----------------5-5-5---------------5-5-5--|

BREAK 1

VERSE 2: Increasing tempo (Reminds you of VERSE 1, don't it?)
Well, they're lookin' at me
Nowhere to go
Oh, what they're sayin'
I just do know
Well, the floor below me
The ceiling above
And I'm the middle
With nobody to love
Nobody to love
Whoo!
Yeah!
Yeah!
Whoo!
Yeah!
Yeah!

G5 G5 G5 X G5 G5 G5 X
G5


number 16

Another piano song; what the hell... let's put it in Open Fm tuning: C F C F G# C
(If you would rather play it in standard tuning, I suggest Em (022000) with
a capo on the 1st fret, so you still achieve
the open chord sound)

 ----------------------------------
| Tab Definitions:			|
|  Fm: x00000				|
|Fm/C: 000000				|
|(-1): Note struck behind the nut	|
|   h: Hammer onto note			|
 ----------------------------------

All breaks and note progressions are played over Fm.

INTRO:
Fm
Oh, Koko

 C|-8-5--5-4--4--|
F#|--------------|
 G|--------------|
 C|--------------|
 G|--------------|
 C|--------------|

VERSE 1:
Fm                                 Fm/C  Fm        Fm/C Fm
Well, folks, I'm goin' down to St. James Infirmary
      Fm/C Fm          Fm/C Fm
To see       my little lady   there
                               Fm/C Fm
She's stretched out on a long, white table
      Fm/C Fm
Well, she

 C|-------------------------------|
F#|-------------------------------|
 G|-7--7------5----5--3--3--2--0--|
 C|-------------------------------|
 G|-------------------------------|
 C|-------------------------------|
    looks so good, so cold, so fair

VERSE 2:
Let her go, let her go, God bless her
Wherever she may be
You may search this whole wide world over
But you'll never find another sweetheart like me
Yeah,

BREAK 1:
 C|----------------------------------------------------------------------------------------|
G#|----------------------------------------------------------------------------------------|
 F|-0-3-5-7--5-3-5-7--0-3-5-7--5-3-0--0-3-5-7--12-10-7-5-3--12-12-10-10-7-7-5-5-3-3-2-2-0--|
 C|----------------------------------------------------------------------------------------|
 F|-0-3-5-7--5-3-5-7--0-3-5-7--5-3-0--0-3-5-7--12-10-7-5-3--12-12-10-10-7-7-5-5-3-3-2-2-0--|
 C|----------------------------------------------------------------------------------------|

VERSE 3:
Take apart your bones and put 'em back together
Tell your mama that you're somebody new
Feel the breeze blowin', tell em all, "Look out, here it comes!"
Now, I can say whatever I feel like to you

VERSE 4:
Then give me six crap-shootin' pallbearers
Let a chorus girl sing me a song
Put a red-hot jazz band, we raise`
`I'm afraid it's the best I can do to decifer this
Hallelujah as we go along
line. I'm all ears if you can understand it better.
Well,

BREAK 2:
 C|----------------------------5---3-5-----------------------------------------|
G#|----------------------------------------------------------------------------|
 F|-0-3-5-7--5-3-5-0--0-3-5-7-----------0-3-5-7--12-10-7-5-3--12-10-7-5-3-2-0--|
 C|----------------------------------------------------------------------------|
 F|-0-3-5-7--5-3-5-7--0-3-5-7--5-3---0--0-3-5-7--12-10-7-5-3--12-10-7-5-3-2-0--|
 C|----------------------------------------------------------------------------|

 C|--------------------------|
G#|--------------------------|
 F|--------------------------|
 C|-0h1h3-0h1h3-0h1h3-0h1h3--|
 F|--------------------------|
 C|--------------------------|

VERSE 5:
Well, folks, now that you have heard my story
Say, boy, hand me another shot of that rye
And if anyone should ask you
Just tell 'em I

 C|------------------------------------------------------------------------------(-1)--|
G#|--------------------------------------------------------(-1)------------------(-1)--|
 F|-7-----------5---------3-------2-------0-------(-1)----------(-1)-------------(-1)--|
 C|---------------------------------------------------(-1)------------(-1)-------(-1)--|
 F|------------------------------------------------------------------------(-1)--(-1)--|
 C|------------------------------------------------------------------------------(-1)--|
    got some of those St. James Infirmary blues


number 16

Open E Tuning
E B E G# B E

OR

Open D Tuning
D A D F# A D capo 2nd fret

 ------------------------------------------------
| Tab Definitions:					|
| E5: 000xxx (open tuning) or 022xxx (standard)		|
| G5: 333xxx (open) or 533xxx (standard)		|
|F#5: 222xxx (open) or 422xxx (standard)		|
|  h: Hammer onto note					|
|  p: Pull off of note					|
|  b: Bend to note		        		|
|  /: Slide to note					|
|  ~: Vibrato (with slide)				|
 ------------------------------------------------
Like in Suzy Lee, Jack plays rhythm guitar behind Johnny Walker, who plays slide. Jack 
playing
in Standard tuning. During breaks I combined both guitars into one part for simplicity, 
pay
attention to the tuning changes.

INTRO:
SLIDE RIFF (Johnny):
 E|--------12-12/------3-0------|
 B|--10/12----12----------------|
G#|--10/12----------------------|
 E|-----------------------------|
 B|-----------------------------|
 E|---------------3-2------3-2--|

Over SLIDE RIFF (Jack):
E|---------(3)-5/7-0--|
B|--------------------|
G|--------------------|
D|--------------------|
A|--------------------|
E|-0-3b--0------------|

VERSE 1: (SLIDE RIFF, with 0-3b--0 from Jack's guitar)
Well, I hold the rope
And I hold the sail
And I kept my papers
To keep from land' in jail
And I fought piranhas
And I fought the cold
There was no one with me
               G5    F#5
I was all alone, yeah

BREAK 1:
    E5
 E|-----------------12----------12-12/---------3/---------------12-12-------12-12/----------------|
 B|--------10-10/12----10-10/12----12---------(3)---------10/12-------10/12----12-----------------|
G#|--------10-10/12----10-10/12---------------------------10/12-------10/12-----------------------|
 E|-0-0-0-------------------------------0-0-0------0-0-0----------------------------0-0-0---------|
 B|-0-0-0-------------------------------0-0-0------0-0-0----------------------------0-0-0---------|
 E|-0-0-0-------------------------------0-0-0------0-0-0----------------------------0-0-0--3-2-0--|
                                    	    Yeah!

SOLO 1: Johnny plays P.M. E5 chords under Jack
E|-------------------------------------------------------------------0-----3-0-----------------------------------|
B|----------------------------------------------------8-10-10b11b10----3-0----------3------3--------3------------|
G|-/12-12~-14b-14b15b14-12-14-12b13b12-------13~--/9----------------------------3/4----3/4---4--3h4---4p2p0-2-0--|
D|-------------------------------------14-14---------------------------------------------------------------------|
A|---------------------------------------------------------------------------------------------------------------|
E|---------------------------------------------------------------------------------------------------------------|

VERSE 2:
Well, it's Easter morning now
And there's no one around
So I unroll the sermon
And walk into the town
There was no one with me
I was all alone
And I fought piranhas
And I fought the cold, yeah

BREAK 2: Jack
   E5
E|--------0-0---0-------------------------0---0---3b-0---0-3-0-3p0-0-------------------3-5b-5-3-5-5-5b---------|
B|------------3-----3-3---------------------3---0------3---------------------------3/5-------------------------|
G|----------------4-----4p2p0-2b3------------------------------------3b---------4b-----------------------------|
D|-2-2-2---------------------------2-2-2---------------------------------2-2-2--------------------------2-2-2--|
A|-2-2-2---------------------------2-2-2---------------------------------2-2-2--------------------------2-2-2--|
E|-0-0-0---------------------------0-0-0---------------------------------0-0-0--------------------------0-0-0--|

SOLO 2: Jack plays a decending 3-2-0 on the low E string while Johnny solos with a slide

 E|----------12-------12-------------10/--------12-12----------12--0-------12-12-------12-----------0--|
 B|-10-10/12------------------------------10/12-------10-10/12-----0-10/12-------10/12--------------0--|
G#|-10-10/12----10/12----10-10/12---------10/12-------10-10/12-----0-10/12-------10/12----10/12-----0--|
 E|-------------------------------12------------------------------------------------------------12-----|
 B|----------------------------------------------------------------------------------------------------|
 E|----------------------------------------------------------------------------------------------------|

VERSE 3:
Well, you know what it's like
I don't gotta tell ya
Who puts up a fight
Walkin' out of hell, now
When you fought piranhas
And you fought the cold
An' there's nobody with you
Yes, you're all alone, yeah

BREAK 3: E5 with acending slide, hitting the high B and E strings alternately
    E5
 E|-------0/-------------------12-12-12--|
 B|-------0/-----------------------------|
G#|--------------------------------------|
 E|-0-0-0----0-0-0----0-0-0----0--0--0---|
 B|-0-0-0----0-0-0----0-0-0----0--0--0---|
 E|-0-0-0----0-0-0----0-0-0----0--0--0---|

 E|---------------12--12--------------|
 B|----------------------12-----------|
G#|-------------------------10/12-----|
 E|---------10/12-----------------12--|
 B|-----------------------------------|
 E|-3-2-0-----------------------------|
comments
print report bad tab
4 comments total. Showing first comments.
0 reply
cpt. insano wrote on March 2 2006, 04:59 pm

his name is jack not jonny

0 reply
WhiteStripesIII wrote on September 5 2006, 02:45 pm

^Johnny walker plays slide, dumbass


Why the **** did you steal from brokenbricks???

0 reply
deargtiogar wrote on December 6 2006, 08:35 pm

The least you could d is give credit where credit is due.

I want to post or [tab]
guest
You may want to rate the tab now too:
select rating
Please do not post tabs as comments. Select "correction" instead!