Oops, an error
Loading. Please wait.

Youve Got Her In Your Pocket Tab

ver5
ver5

Whole song

Interactive

More versions @911Tabs.com
4,100 views 1 this week
no commentswrite comment
1 2 3 4 5
accurate
x 4
Autoscroll
+/-
esc
set tempo
stop
Contributor
Hey! There's an official Ultimate Guitar app which is ideal
for learning songs when you're away from computer. Get the app
WARNING: You are trying to view
                                    content from Ultimate-Guitar.com
                                    in an unauthorized application,
                                    which is prohibited.

                                    Please use an official Ultimate
                                    Guitar Tabs application for iPhone,
                                    iPad or Android to access legitimate
                                    chords, guitar, bass, and drum tabs
                                    from Ultimate-Guitar.com database.

                                    Type "ultimate guitar tabs" in Apple
                                    App Store's or Android Market's
                                    search to find the application.
I've been seeing a lot of tabs for this song that are either wrong or have pieces 
I'm pretty sure that this is correct. If you see any problems, tell me and i will fix it. 
xxxjordanxxxx@gmail.com

 Intro
       D		   G		 C     	G	       A
E-------2---------|-----------------|-----------------|---------------|
B-----3-----3-----|-----------------|-----------------|-------2h3-2---|
G---2---------2---|--------0--------|-----0-------0---|-----2-------2-|
D-0-------------0-|------0---0---0--|---2---2---0---0-|---2----------2|
A-----------------|----2-------2----|-3-------2-------|-0-------------|
E-----------------|--3--------------|-----------------|---------------|
       D		   G		 C     	G	       A
E-------2---------|-----------------|-----------------|---------------|
B-----3-----3-----|-----------------|-----------------|-------2h3-2---|
G---2---------2---|--------0--------|------0-------0--|-----2-------2-|
D-0-------------0-|------0---0---0--|---2---2---0---0-|---2----------2|
A-----------------|----2-------2----|-3-------2-------|-0-------------|
E-----------------|--3--------------|-----------------|---------------|

Chorus
        D		   G		 C     	G	       A
E-------2---------|-----------------|-----------------|---------------|
B-----3-----3-----|-----------------|-----------------|-------2h3-2---|
G---2---------2---|--------0--------|-----0-------0---|-----2-------2-|
D-0-------------0-|------0---0---0--|---2---2---0---0-|---2----------2|
A-----------------|----2-------2----|-3-------2-------|-0-------------|
E-----------------|--3--------------|-----------------|---------------|
	D		   G		 C     	G	       A
E-------2---------|-----------------|-----------------|-0---0---0-0---|
B-----3-----3-----|-----------------|-----------------|-2---2---2-2---|
G---2---------2---|--------0--------|------0-------0--|-2---2---2-2---|
D-0-------------0-|------0---0---0--|---2---2---0---0-|-2---2---2-2---|
A-----------------|----2-------2----|-3-------2-------|-0---0---0-0---|
E-----------------|--3--------------|-----------------|---------------|

Verse 1
       A		  Am		     Am		   G        D
E-0---0---0-0-----|--0---0---0-0----|--0---0---0-0----|--3--------2---|
B-2---2---2-2-----|--1---1---1-1----|--1---1---1-1----|--0--------3---|
G-2---2---2-2-----|--2---2---2-2----|--2---2---2-2----|--0--------2---|
D-2---2---2-2-----|--2---2---2-2----|--2---2---2-2----|--0--------0---|
A-0---0---0-0-----|--0---0---0-0----|--0---0---0-0----|--2------------|
E-----------------|-----------------|-----------------|--3------------|
       D		  Am		     Am		   G	    D
E-2h3-2-2-2h3-2---|--0---0---0-0----|--0---0---0-0----|--3--------2---|
B-3---3-3-3---2---|--1---1---1-1----|--1---1---1-1----|--0--------3---|
G-2---2-2-2---2---|--2---2---2-2----|--2---2---2-2----|--0--------2---|
D-0---0-0-0---2---|--2---2---2-2----|--2---2---2-2----|--0--------0---|
A-----------------|--0---0---0-0----|--0---0---0-0----|--2------------|
E-----------------|-----------------|-----------------|--3------------|
       D		    C		      C		   G	    G
E-2h3-2-2-2h3-2---|--0---0---0-0----|--0---0---0-0----|--3--------3---|
B-3---3-3-3---2---|--1---1---1-1----|--1---1---1-1----|--0--------0---|
G-2---2-2-2---2---|--0---0---0-0----|--0---0---0-0----|--0--------0---|
D-0---0-0-0---2---|--2---2---2-2----|--2---2---2-2----|--0--------0---|
A-----------------|--3---3---3-3----|--3---3---3-3----|--2--------2---|
E-----------------|-----------------|-----------------|--3--------3---|
       G		   C		     C		      F
E-----------3--3--|--0---0---0-0----|--0---0---0-0----|-1---1---1-1---|
B-----------0--0--|--1---1---1-1----|--1---1---1-1----|-1---1---1-1---|
G-----------0--0--|--0---0---0-0----|--0---0---0-0----|-2---2---2-2---|
D-----------0--0--|--2---2---2-2----|--2---2---2-2----|-3---3---3-3---|
A-----------2--2--|--3---3---3-3----|--3---3---3-3----|---------------|
E--0--1--2--3--3--|-----------------|-----------------|---------------|
       A
E--0---0---0-0----|-----------------|-----------------|---------------|
B--2---2---2-2----|-----------------|-----------------|---------------|
G--2---2---2-2----|-----------------|-----------------|---------------|
D--2---2---2-2----|-----------------|-----------------|---------------|
A--0---0---0-0----|-----------------|-----------------|---------------|
E-----------------|-----------------|-----------------|---------------|

Chorus
       D		   G		 C     	G	       A
E-------2---------|-----------------|-----------------|---------------|
B-----3-----3-----|-----------------|-----------------|-------2h3-2---|
G---2---------2---|--------0--------|-----0-------0---|-----2-------2-|
D-0-------------0-|------0---0---0--|---2---2---0---0-|---2----------2|
A-----------------|----2-------2----|-3-------2-------|-0-------------|
E-----------------|--3--------------|-----------------|---------------|
 	D		   G		 C     	G	       A
E-------2---------|-----------------|-----------------|-0---0---0-0---|
B-----3-----3-----|-----------------|-----------------|-2---2---2-2---|
G---2---------2---|--------0--------|------0-------0--|-2---2---2-2---|
D-0-------------0-|------0---0---0--|---2---2---0---0-|-2---2---2-2---|
A-----------------|----2-------2----|-3-------2-------|-0---0---0-0---|
E-----------------|--3--------------|-----------------|---------------|

Verse 2
       A		  Am		     Am
E-0---0---0-0-----|--0---0---0-0----|--0---0---0-0----|---------------|
B-2---2---2-2-----|--1---1---1-1----|--1---1---1-1----|---------------|
G-2---2---2-2-----|--2---2---2-2----|--2---2---2-2----|---------------|
D-2---2---2-2-----|--2---2---2-2----|--2---2---2-2----|---------------|
A-0---0---0-0-----|--0---0---0-0----|--0---0---0-0----|---------------|
E-----------------|-----------------|-----------------|---------------|
       		          Am		     Am            G        D
E-----------------|--0---0---0-0----|--0---0---0-0----|--3--------2---|
B-----------------|--1---1---1-1----|--1---1---1-1----|--0--------3---|
G-----------------|--2---2---2-2----|--2---2---2-2----|--0--------2---|
D-----------------|--2---2---2-2----|--2---2---2-2----|--0--------0---|
A-----------------|--0---0---0-0----|--0---0---0-0----|--2------------|
E-----------------|-----------------|-----------------|--3------------|
       D		  Am		     Am		    G	     D
E-2h3-2-2-2h3-2---|--0---0---0-0----|--0---0---0-0----|--3--------2---|
B-3---3-3-3---2---|--1---1---1-1----|--1---1---1-1----|--0--------3---|
G-2---2-2-2---2---|--2---2---2-2----|--2---2---2-2----|--0--------2---|
D-0---0-0-0---2---|--2---2---2-2----|--2---2---2-2----|--0--------0---|
A-----------------|--0---0---0-0----|--0---0---0-0----|--2------------|
E-----------------|-----------------|-----------------|--3------------|
       D		   C		    C		 G	  G
E-2h3-2-2-2h3-2---|--0---0---0-0----|--0---0---0-0----|--3--------3---|
B-3---3-3-3---2---|--1---1---1-1----|--1---1---1-1----|--0--------0---|
G-2---2-2-2---2---|--0---0---0-0----|--0---0---0-0----|--0--------0---|
D-0---0-0-0---2---|--2---2---2-2----|--2---2---2-2----|--0--------0---|
A-----------------|--3---3---3-3----|--3---3---3-3----|--2--------2---|
E-----------------|-----------------|-----------------|--3--------3---|
       G		   C		    C		      F
E-----------3--3--|--0---0---0-0----|--0---0---0-0----|-1---1---1-1---|
B-----------3--3--|--1---1---1-1----|--1---1---1-1----|-1---1---1-1---|
G-----------0--0--|--0---0---0-0----|--0---0---0-0----|-2---2---2-2---|
D-----------0--0--|--2---2---2-2----|--2---2---2-2----|-3---3---3-3---|
A-----------2--2--|--3---3---3-3----|--3---3---3-3----|---------------|
E--0--1--2--3--3--|-----------------|-----------------|---------------|
       A
E--0---0---0-0----|-----------------|-----------------|---------------|
B--2---2---2-2----|-----------------|-----------------|---------------|
G--2---2---2-2----|-----------------|-----------------|---------------|
D--2---2---2-2----|-----------------|-----------------|---------------|
A--0---0---0-0----|-----------------|-----------------|---------------|
E-----------------|-----------------|-----------------|---------------|

Chorus
       D		   G		 C     	G	       A
E-------2---------|-----------------|-----------------|---------------|
B-----3-----3-----|-----------------|-----------------|-------2h3-2---|
G---2---------2---|--------0--------|-----0-------0---|-----2-------2-|
D-0-------------0-|------0---0---0--|---2---2---0---0-|---2----------2|
A-----------------|----2-------2----|-3-------2-------|-0-------------|
E-----------------|--3--------------|-----------------|---------------|
       D		   G		 C     	G	       A
E-------2---------|-----------------|-----------------|-0---0---0-0---|
B-----3-----3-----|-----------------|-----------------|-2---2---2-2---|
G---2---------2---|--------0--------|------0-------0--|-2---2---2-2---|
D-0-------------0-|------0---0---0--|---2---2---0---0-|-2---2---2-2---|
A-----------------|----2-------2----|-3-------2-------|-0---0---0-0---|
E-----------------|--3--------------|-----------------|---------------|

Verse 3
       A		  Am		     Am
E-0---0---0-0-----|--0---0---0-0----|--0---0---0-0----|---------------|
B-2---2---2-2-----|--1---1---1-1----|--1---1---1-1----|---------------|
G-2---2---2-2-----|--2---2---2-2----|--2---2---2-2----|---------------|
D-2---2---2-2-----|--2---2---2-2----|--2---2---2-2----|---------------|
A-0---0---0-0-----|--0---0---0-0----|--0---0---0-0----|---------------|
E-----------------|-----------------|-----------------|---------------|
       		          Am		      Am	 G        D
E-----------------|--0---0---0-0----|--0---0---0-0----|--3--------2---|
B-----------------|--1---1---1-1----|--1---1---1-1----|--0--------3---|
G-----------------|--2---2---2-2----|--2---2---2-2----|--0--------2---|
D-----------------|--2---2---2-2----|--2---2---2-2----|--0--------0---|
A-----------------|--0---0---0-0----|--0---0---0-0----|--2------------|
E-----------------|-----------------|-----------------|--3------------|
       D		  Am		    Am		 G	  D
E-2h3-2-2-2h3-2---|--0---0---0-0----|--0---0---0-0----|--3--------2---|
B-3---3-3-3---2---|--1---1---1-1----|--1---1---1-1----|--0--------3---|
G-2---2-2-2---2---|--2---2---2-2----|--2---2---2-2----|--0--------2---|
D-0---0-0-0---2---|--2---2---2-2----|--2---2---2-2----|--0--------0---|
A-----------------|--0---0---0-0----|--0---0---0-0----|--2------------|
E-----------------|-----------------|-----------------|--3------------|
       D		   C		    C		 G	  G
E-2h3-2-2-2h3-2---|--0---0---0-0----|--0---0---0-0----|--3--------3---|
B-3---3-3-3---2---|--1---1---1-1----|--1---1---1-1----|--0--------0---|
G-2---2-2-2---2---|--0---0---0-0----|--0---0---0-0----|--0--------0---|
D-0---0-0-0---2---|--2---2---2-2----|--2---2---2-2----|--0--------0---|
A-----------------|--3---3---3-3----|--3---3---3-3----|--2--------2---|
E-----------------|-----------------|-----------------|--3--------3---|
       G		   C		     C		      F
E-----------3--3--|--0---0---0-0----|--0---0---0-0----|-1---1---1-1---|
B-----------0--0--|--1---1---1-1----|--1---1---1-1----|-1---1---1-1---|
G-----------0--0--|--0---0---0-0----|--0---0---0-0----|-2---2---2-2---|
D-----------0--0--|--2---2---2-2----|--2---2---2-2----|-3---3---3-3---|
A-----------2--2--|--3---3---3-3----|--3---3---3-3----|---------------|
E--0--1--2--3--3--|-----------------|-----------------|---------------|
       A
E--0---0---0-0----|-----------------|-----------------|---------------|
B--2---2---2-2----|-----------------|-----------------|---------------|
G--2---2---2-2----|-----------------|-----------------|---------------|
D--2---2---2-2----|-----------------|-----------------|---------------|
A--0---0---0-0----|-----------------|-----------------|---------------|
E-----------------|-----------------|-----------------|---------------|

Chorus
       D		   G		 C     	G	       A
E-------2---------|-----------------|-----------------|---------------|
B-----3-----3-----|-----------------|-----------------|-------2h3-2---|
G---2---------2---|--------0--------|-----0-------0---|-----2-------2-|
D-0-------------0-|------0---0---0--|---2---2---0---0-|---2----------2|
A-----------------|----2-------2----|-3-------2-------|-0-------------|
E-----------------|--3--------------|-----------------|---------------|
       D		   G		 C     	G	       A
E-------2---------|-----------------|-----------------|-0---0---0-0---|
B-----3-----3-----|-----------------|-----------------|-2---2---2-2---|
G---2---------2---|--------0--------|------0-------0--|-2---2---2-2---|
D-0-------------0-|------0---0---0--|---2---2---0---0-|-2---2---2-2---|
A-----------------|----2-------2----|-3-------2-------|-0---0---0-0---|
E-----------------|--3--------------|-----------------|---------------|

Outro
       C		   G		    A
E-------0---------|--------3--------|-------0---------|---------------|
B-------1---------|--------0--------|-------2---------|---------------|
G-------0---------|--------0--------|-------2---------|---------------|
D-------2---------|--------0--------|-------2---------|---------------|
A-------3---------|--------2--------|-------0---------|---------------|
E-----------------|--------3--------|-----------------|---------------|
comments
print report bad tab
I want to post or [tab]
guest
You may want to rate the tab now too:
select rating
Please do not post tabs as comments. Select "correction" instead!