Oops, an error
Loading. Please wait.

El Phantasmo And The Chicken-run Blast-o-rama Tab

962 views 1 this week
no commentswrite comment
1 2 3 4 5
please rate
Autoscroll
+/-
esc
set tempo
stop
Contributor
WARNING: You are trying to view
                                    content from Ultimate-Guitar.com
                                    in an unauthorized application,
                                    which is prohibited.

                                    Please use an official Ultimate
                                    Guitar Tabs application for iPhone,
                                    iPad or Android to access legitimate
                                    chords, guitar, bass, and drum tabs
                                    from Ultimate-Guitar.com database.

                                    Type "ultimate guitar tabs" in Apple
                                    App Store's or Android Market's
                                    search to find the application.
#----------------------------------PLEASE NOTE---------------------------------#
#This file is the author's own work and represents their interpretation of the #
#song. You may only use this file for private study, scholarship, or research. #
#------------------------------------------------------------------------------#

EL PHANTASMO AND THE CHICKEN-RUN BLAST-O-RAMA
As recorded by White Zombie
(From the 1995 Album ASTROCREEP2000)

Transcribed by Marooned
	

Words and Music by White Zombie
Arranged by White Zombie

B5/F#
2 2 4 4 x x
	
C5
x 3 5 5 x x
	
C#5
x 4 6 6 x x
	
F#5
2 4 4 x x x

C5/G
3 3 5 5 x x
	
B5
x 2 4 4 x x
	

Gtr I (C# F# B E G# C#) - 'Untitled'
Gtr II (Db Gb B E Ab Db) - 'Untitled'
Gtr III (C# F# B E G# C#) - 'Untitled'
Gtr IV (C# F# B E G# C#) - 'Untitled'
Gtr V (C# F# B E G# C#) - 'Untitled'

                     Intro
  Moderately Fast Rock Q=106
          B5C5/GF#5         C5    C#5   C5B5C5/GF#5
 4/4
  Gtrs I, II
                          PM  PM|   PM|
  H    Q  S S S S     +S  S E S S E S S E S S S S  3x
|-----------------||-------------------------------||
|-----------------||o-----------------------------o||
|---------4-5-5---||--------5-----6-----5-4-5-5----||
|---------4-5-5-4-||--(4)---5-----6-----5-4-5-5-4--||
|---------2-----4-||o-(4)---3-----4-----3-2-----4-o||
|---------2-----2-||--(2)-0---0-0---0-0---2-----2--||


        C5    C#5   C5/G
                             3/4
      PM  PM|   PM|
  +S  S E S S E S S S S Q        W
|--------------------------||--------||
|--------------------------||--------||
|-------5-----6-----5------||--------||
|-(4)---5-----6-----5------||--------||
|-(4)---3-----4-----3------||--------||
|-(2)-0---0-0---0-0-3------||--------||


  $
  F#
 4/4
  Gtrs I, II
   E S  S +S  S  E S  E S  E S  S
|---------------------------------|
|---------------------------------|
|---------------------------------|
|---------------------------------|
|---------------------------------|
|--2-0--2-(2)-0--2-0--2-0--2-0--2-|
|
| Gtr III
|  E S  S +S  S  E S  E S  E S  S
|---------------------------------|
|---------------------------------|
|---------------------------------|
|-11---11-------11---11---11---11-|
|--9-7--9-(9)-7--9-7--9-7--9-7--9-|
|---------------------------------|


                        G                   G#        A
   +S  S  E S  E S   S    S    S    S    S    S    S    S
|----------------------------------------------------------|
|----------------------------------------------------------|
|----------------------------------------------------------|
|--------------------4----5----5----5----5----6----6----7--|
|----------------------------------------------------------|
|--(2)-0--2-0--2-0---2----3----3----3----3----4----4----5--|
|
|  +S  S  E S  E S   S    S    S    S    S    S    S    S
|----------------------------------------------------------|
|----------------------------------------------------------|
|------------------(11)-(12)-(12)-(12)-(12)-(13)-(13)-(14)-|
|-(11)---11---11----11---12---12---12---12---13---13---14--|
|--(9)-7--9-7--9-7---9---10---10---10---10---11---11---12--|
|----------------------------------------------------------|


  F#
   E S  S +S  S  E S  E S  E S  S
|---------------------------------|
|---------------------------------|
|---------------------------------|
|---------------------------------|
|---------------------------------|
|--2-0--2-(2)-0--2-0--2-0--2-0--2-|
|
|  E S  S +S  S  E S  E S  E S  S
|---------------------------------|
|---------------------------------|
|---------------------------------|
|-11---11-------11---11---11---11-|
|--9-7--9-(9)-7--9-7--9-7--9-7--9-|
|---------------------------------|


                        G                   G#        A
   +S  S  E S  E S   S    S    S    S    S    S    S    S
|----------------------------------------------------------|
|----------------------------------------------------------|
|----------------------------------------------------------|
|--------------------4----5----5----5----5----6----6----7--|
|----------------------------------------------------------|
|--(2)-0--2-0--2-0---2----3----3----3----3----4----4----5--|
|
|  +S  S  E S  E S   S    S    S    S    S    S    S    S
|----------------------------------------------------------|
|----------------------------------------------------------|
|------------------(11)-(12)-(12)-(12)-(12)-(13)-(13)-(14)-|
|-(11)---11---11----11---12---12---12---12---13---13---14--|
|--(9)-7--9-7--9-7---9---10---10---10---10---11---11---12--|
|----------------------------------------------------------|


  F#
   E S  S +S  S  E S  E S  E S  S
|---------------------------------|
|---------------------------------|
|---------------------------------|
|---------------------------------|
|---------------------------------|
|--2-0--2-(2)-0--2-0--2-0--2-0--2-|
|
|  E S  S +S  S  E S  E S  E S  S
|---------------------------------|
|---------------------------------|
|---------------------------------|
|-11---11-------11---11---11---11-|
|--9-7--9-(9)-7--9-7--9-7--9-7--9-|
|---------------------------------|


                        G                   G#        A
   +S  S  E S  E S   S    S    S    S    S    S    S    S
|----------------------------------------------------------|
|----------------------------------------------------------|
|----------------------------------------------------------|
|--------------------4----5----5----5----5----6----6----7--|
|----------------------------------------------------------|
|--(2)-0--2-0--2-0---2----3----3----3----3----4----4----5--|
|
|  +S  S  E S  E S   S    S    S    S    S    S    S    S
|----------------------------------------------------------|
|----------------------------------------------------------|
|------------------(11)-(12)-(12)-(12)-(12)-(13)-(13)-(14)-|
|-(11)---11---11----11---12---12---12---12---13---13---14--|
|--(9)-7--9-7--9-7---9---10---10---10---10---11---11---12--|
|----------------------------------------------------------|


  F#
   E S  S +S  S  E S  E S  E S  S
|---------------------------------|
|---------------------------------|
|---------------------------------|
|---------------------------------|
|---------------------------------|
|--2-0--2-(2)-0--2-0--2-0--2-0--2-|
|
|  E S  S +S  S  E S  E S  E S  S
|---------------------------------|
|---------------------------------|
|---------------------------------|
|-11---11-------11---11---11---11-|
|--9-7--9-(9)-7--9-7--9-7--9-7--9-|
|---------------------------------|


                        G                   G#        A
   +S  S  E S  E S   S    S    S    S    S    S    S    S
|----------------------------------------------------------||
|----------------------------------------------------------||
|----------------------------------------------------------||
|--------------------4----5----5----5----5----6----6----7--||
|----------------------------------------------------------||
|--(2)-0--2-0--2-0---2----3----3----3----3----4----4----5--||
|
|  +S  S  E S  E S   S    S    S    S    S    S    S    S
|----------------------------------------------------------||
|----------------------------------------------------------||
|------------------(11)-(12)-(12)-(12)-(12)-(13)-(13)-(14)-||
|-(11)---11---11----11---12---12---12---12---13---13---14--||
|--(9)-7--9-7--9-7---9---10---10---10---10---11---11---12--||
|----------------------------------------------------------||


   Verse 1, 2, 3
    B5  C5          F#5
     S   S   S   S   S  E. H      W
||------------------------------|----------|
||o-----------------------------|----------|
||---4---5---5---5--------------|----------|
||--(4)-(5)-(5)-(5)--4----------|----------|
||o--2---3---3---3--(4)---------|----------|
||-------------------2----------|----------|


  B5  C5          F#5
   S   S   S   S   S  E. H      W
|-----------------------------|------|
|-----------------------------|------|
|--4---5---5---5--------------|------|
|-(4)-(5)-(5)-(5)--4----------|------|
|--2---3---3---3--(4)---------|------|
|------------------2----------|------|


                                                                    To Coda
  B5  C5          F#5                      B5  C5          F#5
   S   S   S   S   S  E. H      W           S   S   S   S   S  E. H      W
|-----------------------------|----------|-----------------------------|-------|
|-----------------------------|----------|-----------------------------|-------|
|--4---5---5---5--------------|----------|--4---5---5---5--------------|-------|
|-(4)-(5)-(5)-(5)--4----------|----------|-(4)-(5)-(5)-(5)--4----------|-------|
|--2---3---3---3--(4)---------|----------|--2---3---3---3--(4)---------|-------|
|------------------2----------|----------|------------------2----------|-------|


 Chorus
  F#
   E S  S +S  S  E S  E S  E S  S
|---------------------------------|
|---------------------------------|
|---------------------------------|
|---------------------------------|
|---------------------------------|
|--2-0--2-(2)-0--2-0--2-0--2-0--2-|
|
| Gtr III
|  E S  S +S  S  E S  E S  E S  S
|---------------------------------|
|---------------------------------|
|---------------------------------|
|-11---11-------11---11---11---11-|
|--9-7--9-(9)-7--9-7--9-7--9-7--9-|
|---------------------------------|


                        G                   G#        A
   +S  S  E S  E S   S    S    S    S    S    S    S    S
|----------------------------------------------------------|
|----------------------------------------------------------|
|----------------------------------------------------------|
|--------------------4----5----5----5----5----6----6----7--|
|----------------------------------------------------------|
|--(2)-0--2-0--2-0---2----3----3----3----3----4----4----5--|
|
|  +S  S  E S  E S   S    S    S    S    S    S    S    S
|----------------------------------------------------------|
|----------------------------------------------------------|
|------------------(11)-(12)-(12)-(12)-(12)-(13)-(13)-(14)-|
|-(11)---11---11----11---12---12---12---12---13---13---14--|
|--(9)-7--9-7--9-7---9---10---10---10---10---11---11---12--|
|----------------------------------------------------------|


  F#
   E S  S +S  S  E S  E S  E S  S
|---------------------------------|
|---------------------------------|
|---------------------------------|
|---------------------------------|
|---------------------------------|
|--2-0--2-(2)-0--2-0--2-0--2-0--2-|
|
|  E S  S +S  S  E S  E S  E S  S
|---------------------------------|
|---------------------------------|
|---------------------------------|
|-11---11-------11---11---11---11-|
|--9-7--9-(9)-7--9-7--9-7--9-7--9-|
|---------------------------------|


                        G                   G#        A
   +S  S  E S  E S   S    S    S    S    S    S    S    S
|----------------------------------------------------------|
|----------------------------------------------------------|
|----------------------------------------------------------|
|--------------------4----5----5----5----5----6----6----7--|
|----------------------------------------------------------|
|--(2)-0--2-0--2-0---2----3----3----3----3----4----4----5--|
|
|  +S  S  E S  E S   S    S    S    S    S    S    S    S
|----------------------------------------------------------|
|----------------------------------------------------------|
|------------------(11)-(12)-(12)-(12)-(12)-(13)-(13)-(14)-|
|-(11)---11---11----11---12---12---12---12---13---13---14--|
|--(9)-7--9-7--9-7---9---10---10---10---10---11---11---12--|
|----------------------------------------------------------|


  F#
   E S  S +S  S  E S  E S  E S  S
|---------------------------------|
|---------------------------------|
|---------------------------------|
|---------------------------------|
|---------------------------------|
|--2-0--2-(2)-0--2-0--2-0--2-0--2-|
|
|  E S  S +S  S  E S  E S  E S  S
|---------------------------------|
|---------------------------------|
|---------------------------------|
|-11---11-------11---11---11---11-|
|--9-7--9-(9)-7--9-7--9-7--9-7--9-|
|---------------------------------|


                        G                   G#        A
   +S  S  E S  E S   S    S    S    S    S    S    S    S
|----------------------------------------------------------|
|----------------------------------------------------------|
|----------------------------------------------------------|
|--------------------4----5----5----5----5----6----6----7--|
|----------------------------------------------------------|
|--(2)-0--2-0--2-0---2----3----3----3----3----4----4----5--|
|
|  +S  S  E S  E S   S    S    S    S    S    S    S    S
|----------------------------------------------------------|
|----------------------------------------------------------|
|------------------(11)-(12)-(12)-(12)-(12)-(13)-(13)-(14)-|
|-(11)---11---11----11---12---12---12---12---13---13---14--|
|--(9)-7--9-7--9-7---9---10---10---10---10---11---11---12--|
|----------------------------------------------------------|


  F#
   E S  S +S  S  E S  E S  E S  S
|---------------------------------|
|---------------------------------|
|---------------------------------|
|---------------------------------|
|---------------------------------|
|--2-0--2-(2)-0--2-0--2-0--2-0--2-|
|
|  E S  S +S  S  E S  E S  E S  S
|---------------------------------|
|---------------------------------|
|---------------------------------|
|-11---11-------11---11---11---11-|
|--9-7--9-(9)-7--9-7--9-7--9-7--9-|
|---------------------------------|


  1.
                        G                   G#        A
   +S  S  E S  E S   S    S    S    S    S    S    S    S
|-----------------------------------------------------------||
|----------------------------------------------------------o||
|-----------------------------------------------------------||
|--------------------4----5----5----5----5----6----6----7---||
|----------------------------------------------------------o||
|--(2)-0--2-0--2-0---2----3----3----3----3----4----4----5---||
|
|  +S  S  E S  E S   S    S    S    S    S    S    S    S
|-----------------------------------------------------------||
|----------------------------------------------------------o||
|------------------(11)-(12)-(12)-(12)-(12)-(13)-(13)-(14)--||
|-(11)---11---11----11---12---12---12---12---13---13---14---||
|--(9)-7--9-7--9-7---9---10---10---10---10---11---11---12--o||
|-----------------------------------------------------------||


  2.
  F#                    G                   G#        A
    S  S  E S  E S   S    S    S    S    S    S    S    S
|----------------------------------------------------------|
|----------------------------------------------------------|
|----------------------------------------------------------|
|--------------------4----5----5----5----5----6----6----7--|
|----------------------------------------------------------|
|--(2)-0--2-0--2-0---2----3----3----3----3----4----4----5--|
|
|   S  S  E S  E S   S    S    S    S    S    S    S    S
|----------------------------------------------------------|
|----------------------------------------------------------|
|------------------(11)-(12)-(12)-(12)-(12)-(13)-(13)-(14)-|
|-(11)---11---11----11---12---12---12---12---13---13---14--|
|--(9)-7--9-7--9-7---9---10---10---10---10---11---11---12--|
|----------------------------------------------------------|


   Interlude
    N.C.
    Gtr IV
     E   E   Q    E   E   Q      E   E   Q    E   E   Q    6x
||--<5>-<5>-<5>--<5>-<5>-<5>--|-<5>-<5>-<5>--<5>-<5>-<5>---||
||o---------------------------|---------------------------o||
||----------------------------|----------------------------||
||----------------------------|----------------------------||
||o---------------------------|---------------------------o||
||----------------------------|----------------------------||
|
|   Gtr V
|    H            H              H            Q       Q    6x
||----------------------------|----------------------------||
||o-[1]----------[2]----------|---------------------------o||
||----------------------------|-[3]------------------------||
||----------------------------|--------------[2]-----[1]---||
||o---------------------------|---------------------------o||
||----------------------------|----------------------------||


 Breakdown
  Wx8
|--------||
|--------||
|--------||
|--------||
|--------||
|--------||


                            Out-Chorus
              D.S. al Coda   &
                             F#
 3/4                        4/4
  Gtr I                      Gtrs I, II
  ~~~~~~~~~~~~~~~~~~~~~
  H.        +H     +E. S      E S  S  +S  S  E S  E S  E S  S
|---------|----------------|----------------------------------|
|---------|------------x\--|----------------------------------|
|---------|----------------|----------------------------------|
|---------|----------------|----------------------------------|
|---------|----------------|----------------------------------|
|-5-------|-(5)----(5)-----|--2-0--2--(2)-0--2-0--2-0--2-0--2-|
|
|                            Gtr III
| W          W                E S  S  +S  S  E S  E S  E S  S
|---------|----------------|----------------------------------|
|---------|----------------|----------------------------------|
|---------|----------------|----------------------------------|
|---------|----------------|-11---11-(11)---11---11---11---11-|
|---------|----------------|--9----9--(9)----9----9----9----9-|
|---------|----------------|----------------------------------|


   +S  S  E S  E S  E S  S  +S  S  E
|------------------------------------|
|------------------------------------|
|------------------------------------|
|------------------------------------|
|------------------------------------|
|--(2)-0--2-0--2-0--2-0--2--(2)-0--2-|
|
|  +S  S  E S  E S  E S  S  +S  S  E
|------------------------------------|
|------------------------------------|
|------------------------------------|
|-(11)---11---11---11---11-(11)---11-|
|--(9)----9----9----9----9--(9)----9-|
|------------------------------------|


  S  E S  E S  S  +S  S  E S  E S    E S  S  +S  S  E S  E S  E S  S
|---------------------------------|----------------------------------|
|---------------------------------|----------------------------------|
|---------------------------------|----------------------------------|
|---------------------------------|----------------------------------|
|---------------------------------|----------------------------------|
|-0--2-0--2-0--2--(2)-0--2-0--2-0-|--2-0--2--(2)-0--2-0--2-0--2-0--2-|
|
| S  E S  E S  S  +S  S  E S  E S    E S  S  +S  S  E S  E S  E S  S
|---------------------------------|----------------------------------|
|---------------------------------|----------------------------------|
|---------------------------------|----------------------------------|
|---11---11---11-(11)---11---11---|-11---11-(11)---11---11---11---11-|
|----9----9----9--(9)----9----9---|--9----9--(9)----9----9----9----9-|
|---------------------------------|----------------------------------|


   +S  S  E S  E S  E S  S  +S  S  E
|------------------------------------|
|------------------------------------|
|------------------------------------|
|------------------------------------|
|------------------------------------|
|--(2)-0--2-0--2-0--2-0--2--(2)-0--2-|
|
|  +S  S  E S  E S  E S  S  +S  S  E
|------------------------------------|
|------------------------------------|
|------------------------------------|
|-(11)---11---11---11---11-(11)---11-|
|--(9)----9----9----9----9--(9)----9-|
|------------------------------------|


  S  E S  E S  S  +S  S  E S  E S    E S  S  +S  S  E S  E S  E S  S
|---------------------------------|----------------------------------|
|---------------------------------|----------------------------------|
|---------------------------------|----------------------------------|
|---------------------------------|----------------------------------|
|---------------------------------|----------------------------------|
|-0--2-0--2-0--2--(2)-0--2-0--2-0-|--2-0--2--(2)-0--2-0--2-0--2-0--2-|
|
| S  E S  E S  S  +S  S  E S  E S    E S  S  +S  S  E S  E S  E S  S
|---------------------------------|----------------------------------|
|---------------------------------|----------------------------------|
|---------------------------------|----------------------------------|
|---11---11---11-(11)---11---11---|-11---11-(11)---11---11---11---11-|
|----9----9----9--(9)----9----9---|--9----9--(9)----9----9----9----9-|
|---------------------------------|----------------------------------|


                                PM---|
   +S  S  E S  E S  E S  S  +S  S  S S
|---------------------------------------||
|---------------------------------------||
|---------------------------------------||
|---------------------------------------||
|---------------------------------------||
|--(2)-0--2-0--2-0--2-0--2--(2)-0--0-0--||
|
|  +S  S  E S  E S  E S  S  +S  E.
|---------------------------------------||
|---------------------------------------||
|---------------------------------------||
|-(11)---11---11---11---11-(11)---------||
|--(9)----9----9----9----9--(9)---------||
|---------------------------------------||


   Outro
    F# G           G#    A      F#
   2/4
     S  S  S  S  S  S  S  S  8x  q  Q    W
||---------------------------||--------|------*|
||o-------------------------o||--------|------*|
||---------------------------||--------|------*|
||---4--5--5--5--5--6--6--7--||--4-----|------*|
||o-------------------------o||--------|------*|
||---2--3--3--3--3--4--4--5--||--2-----|------*|
|
|    S  S  S  S  S  S  S  S  8x  q  Q    W
||---------------------------||--------|------*|
||o-------------------------o||--------|------*|
||--11-12-12-12-12-13-13-14--||-11-----|------*|
||--11-12-12-12-12-13-13-14--||-11-----|------*|
||o--9-10-10-10-10-11-11-12-o||--9-----|------*|
||---------------------------||--------|------*|



Duration Legend
---------------
W - whole; H - half; Q - quarter; E - 8th; S - 16th; T - 32nd; X - 64th; a - acciaccatura
+ - note tied to previous; . - note dotted; .. - note double dotted
Uncapitalized letters represent notes that are staccato (1/2 duration)
Irregular groupings are notated above the duration line
Duration letters will always appear directly above the note/fret number it represents the
duration for.  Duration letters with no fret number below them represent rests.  Multi-
bar rests are notated in the form Wxn, where n is the number of bars to rest for.  Low
melody durations appear below the staff

Tablature Legend
----------------
 h   - hammer-on
 p   - pull-off
 b   - bend
 pb  - pre-bend
 r   - bend release (if no number after the r, then release immediately)
 /\  - slide into or out of (from/to "nowhere")
 s   - legato slide
 S   - shift slide
 - natural harmonic
[n]  - artificial harmonic
n(n) - tapped harmonic
 ~   - vibrato
 tr  - trill
 T   - tap
 TP  - trem. picking
 PM  - palm muting
\n/  - tremolo bar dip; n = amount to dip
 \n  - tremolo bar down
 n/  - tremolo bar up
/n\  - tremolo bar inverted dip
 =   - hold bend; also acts as connecting device for hammers/pulls
 <> - volume swell (louder/softer)
 x   - on rhythm slash represents muted slash
 o   - on rhythm slash represents single note slash

Misc Legend
-----------
 |  - bar
||  - double bar
||o - repeat start
o|| - repeat end
*|  - double bar (ending)
 :  - bar (freetime)
 $  - Segno
 &  - Coda
Tempo markers -  = BPM(8/16=s8/s16), where s8 = swing 8ths, s16 = swing 16ths

comments
We did not receive enough feedback on this tab! Please rate:
1 2 3 4 5
I want to post or [tab]
guest
You may want to rate the tab now too:
select rating
Please do not post tabs as comments. Select "correction" instead!