Oops, an error
Loading. Please wait.

A Legal Matter Bass Tab

by Who
ver2
ver2

Whole song

Interactive

More versions @911Tabs.com
244 views 3 this week
no commentswrite comment
1 2 3 4 5
please rate
add to favorites launch autoscroll
font size
0
reset
Autoscroll
+/-
esc
set tempo
stop
Contributor
WARNING: You are trying to view
                                    content from Ultimate-Guitar.com
                                    in an unauthorized application,
                                    which is prohibited.

                                    Please use an official Ultimate
                                    Guitar Tabs application for iPhone,
                                    iPad or Android to access legitimate
                                    chords, guitar, bass, and drum tabs
                                    from Ultimate-Guitar.com database.

                                    Type "ultimate guitar tabs" in Apple
                                    App Store's or Android Market's
                                    search to find the application.
A Legal Matter
The Who
Written by Pete Townshend; released as a single with "Instant Party 
(Circles)" as the B-side and on the album "My Generation"

Intro:
G|------- ------- ------- -------|------- ------- ------- -------|
D|-------------------------------|-------------------------------|
A|-------------------------------|-------------------------------|
E|-------------------------------|-------------------------------|



G|------- ------- ------- -------|------- ------- ------- -------|
D|-------------------------------|-------------------------------|
A|-------------------------------|-------------------------------|
E|-------------------------------|-------------------------------|



G|------- ------- ------- -------|------- ------- ------- -------|
D|-------------------------------|-------------------------------|
A|-------------------------------|-------------------------------|
E|5-------5-------5-------5------|5-------5-------5-------5------|



G|------- ------- ------- -------|------- ------- ------- -------|
D|-------------------------------|-------------------------------|
A|-------------------------------|-------------------------------|
E|5-------5-------5-------5------|5-------5-------5-------5------|



G|------- ------- ------- -------|------- ------- ------- -------|
D|-------------------------------|-------------------------------|
A|-------------------------------|-------------------------------|
E|5-------5-------5-------5------|5-------5-------5-------5------|



G|------- ------- ------- -------|------- ------- ------- -------|
D|-------------------------------|-------------------------------|
A|-------------------------------|-------------------------------|
E|5-------5-------5-------5------|5-------5-------5-------5------|
                                                              I

Verse:
G|------- ------- ------- -------|------- ------- ------- -------|
D|-------------------------------|-------------------------------|
A|-------------------------------|5-------5-------7-------7------|
E|5-------5-------5-------5------|-------------------------------|
  told    you     why I       changed     my  mind,


G|------- ------- ------- -------|------- ------- ------- -------|
D|-------------------------------|-------------------------------|
A|-------------------------------|-------------------------------|
E|5-------5-------5-------5------|5-------5-------5-------5------|



G|------- ------- ------- -------|------- ------- ------- -------|
D|-------------------------------|-------------------------------|
A|-------------------------------|5-------5-------7-------7------|
E|5-------5-------5-------5------|-------------------------------|
  I       got     bored   by      playing with    time.


G|------- ------- ------- -------|------- ------- ------- -------|
D|-------------------------------|-------------------------------|
A|-------------------------------|-------------------------------|
E|5-------5-------5-------5------|5-------5-------5-------5------|
                                                              I


G|------- ------- ------- -------|------- ------- ------- -------|
D|-------------------------------|-------------------------------|
A|-------------------------------|5-------5-------7-------7------|
E|5-------5-------5-------5------|-------------------------------|
  know    you thought     you had         me  nailed,


G|------- ------- ------- -------|------- ------- ------- -------|
D|-------------------------------|-------------------------------|
A|-------------------------------|-------------------------------|
E|5-------5-------5-------5------|5-------5-------5-------5------|
                                                      But I've


G|------- ------- ------- -------|------- ------- ------- -------|
D|-------------------------------|-------------------------------|
A|-------------------------------|5-------5-------7-------7------|
E|5-------5-------5-------5------|-------------------------------|
  freed   my  head    from your   gar  -  den     rails.


G|------- ------- ------- -------|------- ------- ------- -------|
D|-------------------------------|-------------------------------|
A|-------------------------------|--------4-------7-------4------|
E|5-------5-------5-------5------|5------------------------------|
                                          Now     it's    a

Refrain:
G|------- ------- ------- -------|------- ------- ------- -------|
D|--------4----------------------|7-------5-------4--------------|
A|5---------------7-------7------|------------------------7------|
E|-------------------------------|-------------------------------|
  le  -   gal     mat -   ter, ba  -  by,                     you


G|------- ------- ------- -------|------- ------- ------- -------|
D|--------4----------------------|-------------------------------|
A|5---------------7-------7------|--------4-------7-------7------|
E|-------------------------------|5------------------------------|
  got     me  on          the run.                It's    a


G|------- ------- ------- -------|------- ------- ------- -------|
D|--------4----------------------|7-------5-------4--------------|
A|5---------------7-------7------|------------------------7------|
E|-------------------------------|-------------------------------|
  le  -   gal     mat -   ter, ba  -  by,                     A


G|------- ------- ------- -------|------- ------- ------- -------|
D|-------------------------------|-------------------------------|
A|5-------5-------5-------5------|5-------5-------5-------5------|
E|-------------------------------|-------------------------------|
  le            -         gal     mat  -  ter from    now


G|------- ------- ------- -------|------- ------- ------- -------|
D|-------------------------------|-------------------------------|
A|7-------7-------7-------7------|7-------7-------7-------7------|
E|-------------------------------|-------------------------------|
  on.


G|------- ------- ------- -------|------- ------- ------- -------|
D|-------------------------------|-------------------------------|
A|-------------------------------|-------------------------------|
E|5-------5-------5-------5------|5-------5-------5-------5------|



G|------- ------- ------- -------|------- ------- ------- -------|
D|-------------------------------|-------------------------------|
A|-------------------------------|-------------------------------|
E|5-------5-------5-------5------|5-------5-------5-------5------|
                                                              My

Verse:
G|------- ------- ------- -------|------- ------- ------- -------|
D|-------------------------------|-------------------------------|
A|-------------------------------|5-------5-------7-------7------|
E|5-------5-------5-------5------|-------------------------------|
      mind's      lost    in  a   house - hold        fog,


G|------- ------- ------- -------|------- ------- ------- -------|
D|-------------------------------|-------------------------------|
A|-------------------------------|-------------------------------|
E|5-------5-------5-------5------|5-------5-------5-------5------|



G|------- ------- ------- -------|------- ------- ------- -------|
D|-------------------------------|-------------------------------|
A|-------------------------------|5-------5-------7-------7------|
E|5-------5-------5-------5------|-------------------------------|
  Wedding     gowns       and     ca  -   ta- logs,


G|------- ------- ------- -------|------- ------- ------- -------|
D|-------------------------------|-------------------------------|
A|-------------------------------|-------------------------------|
E|5-------5-------5-------5------|5-------5-------5-------5------|



G|------- ------- ------- -------|------- ------- ------- -------|
D|-------------------------------|-------------------------------|
A|-------------------------------|5-------5-------7-------7------|
E|5-------5-------5-------5------|-------------------------------|
  Kitchen         fur  -  ni- shings      and     hou  -  ses,


G|------- ------- ------- -------|------- ------- ------- -------|
D|-------------------------------|-------------------------------|
A|-------------------------------|-------------------------------|
E|5-------5-------5-------5------|5-------5-------5-------5------|
                                                              The


G|------- ------- ------- -------|------- ------- ------- -------|
D|-------------------------------|-------------------------------|
A|-------------------------------|5-------5-------7-------7------|
E|5-------5-------5-------5------|-------------------------------|
  dir  -  ty  clothes     and     ba  -   by's    trou  - sers.


G|------- ------- ------- -------|------- ------- ------- -------|
D|-------------------------------|-------------------------------|
A|-------------------------------|-------------------------------|
E|5-------5-------5-------5------|5-------5-------5-------5------|
                                                  It's    a

Refrain:
G|------- ------- ------- -------|------- ------- ------- -------|
D|--------4----------------------|7-----------------------4------|
A|5---------------7-------7------|--------4-------7--------------|
E|-------------------------------|-------------------------------|
  le  -   gal     mat -   ter, ba  -  by,


G|------- ------- ------- -------|------- ------- ------- -------|
D|--------4----------------------|7-------5-------4--------------|
A|5---------------7-------7------|------------------------7------|
E|-------------------------------|-------------------------------|
  mar     ry- ing's   no          fun.            It's    a


G|------- ------- ------- -------|------- ------- ------- -------|
D|--------4----------------------|7-----------------------4------|
A|5---------------7-------7------|--------4-------7--------------|
E|-------------------------------|-------------------------------|
  le  -   gal     mat -   ter, ba  -  by,                     A


G|------- ------- ------- -------|------- ------- ------- -------|
D|-------------------------------|-------------------------------|
A|5-------5-------5-------5------|5-------5-------5-------5------|
E|-------------------------------|-------------------------------|
  le            -         gal     mat  -  ter from    now


G|------- ------- ------- -------|------- ------- ------- -------|
D|-------------------------------|-------------------------------|
A|7-------7-------7-------7------|7-------7-------7-------7------|
E|-------------------------------|-------------------------------|
  on.


G|------- ------- ------- -------|------- ------- ------- -------|
D|-------------------------------|-------------------------------|
A|-------------------------------|-------------------------------|
E|5---------------5--------------|5---------------5--------------|



G|------- ------- ------- -------|------- ------- ------- -------|
D|-------------------------------|-------------------------------|
A|-------------------------------|-------------------------------|
E|5---------------5--------------|5---------------5--------------|


Re-intro:
G|------- ------- ------- -------|------- ------- ------- -------|
D|-------------------------------|-------------------------------|
A|-------------------------------|-------------------------------|
E|-------------------------------|-------------------------------|



G|------- ------- ------- -------|------- ------- ------- -------|
D|-------------------------------|-------------------------------|
A|-------------------------------|-------------------------------|
E|-------------------------------|-------------------------------|



G|------- ------- ------- -------|------- ------- ------- -------|
D|-------------------------------|-------------------------------|
A|-------------------------------|-------------------------------|
E|5-------5-------5-------5------|5-------5-------5-------5------|



G|------- ------- ------- -------|------- ------- ------- -------|
D|-------------------------------|-------------------------------|
A|-------------------------------|-------------------------------|
E|5-------5-------5-------5------|5-------5-------5-------5------|



G|------- ------- ------- -------|------- ------- ------- -------|
D|-------------------------------|-------------------------------|
A|-------------------------------|5-------5---------------5------|
E|5-------5-------5-------5------|----------------5--------------|



G|------- ------- ------- -------|------- ------- ------- -------|
D|-------------------------------|-------------------------------|
A|-------------------------------|5-------5-------5-------5------|
E|5-------5-------5-------5------|-------------------------------|
                                                              I

Verse:
G|------- ------- ------- -------|------- ------- ------- -------|
D|-------------------------------|-------------------------------|
A|-------------------------------|5-------5-------7-------7------|
E|5-------5-------5-------5------|-------------------------------|
  told    you     why I       changed     my  mind,


G|------- ------- ------- -------|------- ------- ------- -------|
D|-------------------------------|-------------------------------|
A|-------------------------------|-------------------------------|
E|5-------5-------5-------5------|5-------5-------5-------5------|



G|------- ------- ------- -------|------- ------- ------- -------|
D|-------------------------------|-------------------------------|
A|-------------------------------|5-------5-------7-------7------|
E|5-------5-------5-------5------|-------------------------------|
  I       got     bored   by      playing with    time.


G|------- ------- ------- -------|------- ------- ------- -------|
D|-------------------------------|-------------------------------|
A|-------------------------------|-------------------------------|
E|5-------5-------5-------5------|5-------5-------5-------5------|
                                                              I


G|------- ------- ------- -------|------- ------- ------- -------|
D|-------------------------------|-------------------------------|
A|-------------------------------|5-------5-------7-------7------|
E|5-------5-------5-------5------|-------------------------------|
  know    you thought     you had         me  nailed,


G|------- ------- ------- -------|------- ------- ------- -------|
D|-------------------------------|-------------------------------|
A|-------------------------------|-------------------------------|
E|5-------5-------5-------5------|5-------5-------5-------5------|
                                                      But I've


G|------- ------- ------- -------|------- ------- ------- -------|
D|-------------------------------|-------------------------------|
A|-------------------------------|5-------5-------7-------7------|
E|5-------5-------5-------5------|-------------------------------|
  freed   my  head    from your   gar  -  den     rails.


G|------- ------- ------- -------|------- ------- ------- -------|
D|-------------------------------|-------------------------------|
A|-------------------------------|--------4----------------------|
E|5-------5-------5-------5------|5---------------5-------7------|
                                          Now     it's    a

Refrain:
G|------- ------- ------- -------|------- ------- ------- -------|
D|--------4----------------------|-------------------------------|
A|5---------------7-------7------|--------4---------------4------|
E|-------------------------------|5---------------5--------------|
  le  -   gal     mat -   ter, ba  -  by,                     you


G|------- ------- ------- -------|------- ------- ------- -------|
D|--------4----------------------|7-------5-------4--------------|
A|5---------------7-------7------|------------------------7------|
E|-------------------------------|-------------------------------|
  got     me  on          the run.                It's    a


G|------- ------- ------- -------|------- ------- ------- -------|
D|--------4----------------------|------------------------4------|
A|5---------------7-------7------|--------4-------7--------------|
E|-------------------------------|5------------------------------|
  le  -   gal     mat -   ter, ba  -  by,                     A


G|------- ------- ------- -------|------- ------- ------- -------|
D|-------------------------------|-------------------------------|
A|5-------5-------5-------5------|5-------5-------5-------5------|
E|-------------------------------|-------------------------------|
  le            -         gal     mat  -  ter from    now


G|------- ------- ------- -------|------- ------- ------- -------|
D|-------------------------------|-------------------------------|
A|7-------7-------7-------7------|7-------7-------7-------7------|
E|-------------------------------|-------------------------------|
  on.


G|------- ------- ------- -------|------- ------- ------- -------|
D|-------------------------------|-------------------------------|
A|-------------------------------|-------------------------------|
E|5-------5-------5-------5------|5-------5-------5-------5------|



G|------- ------- ------- -------|------- ------- ------- -------|
D|-------------------------------|-------------------------------|
A|-------------------------------|-------------------------------|
E|5-------5-------5-------5------|5-------5-------5-------5------|
                                                              You

Bridge:
G|------- ------- ------- -------|------- ------- ------- -------|
D|-------------------------------|-------------------------------|
A|-------------------------------|5-------5-------7-------7------|
E|5-------5-------5-------5------|-------------------------------|
  ain't   the first   and you     ain't   the last,           I


G|------- ------- ------- -------|------- ------- ------- -------|
D|-------------------------------|-------------------------------|
A|-------------------------------|--------5-------7-------7------|
E|5-------5-------5-------5------|5------------------------------|
  gain    and lose        my      wo- men     fast,           I


G|------- ------- ------- -------|------- ------- ------- -------|
D|-------------------------------|-------------------------------|
A|-------------------------------|5-------5-------7-------7------|
E|5-------5-------5-------5------|-------------------------------|
  ne  -   ver wan    -    na  make    them        cry,        I


G|------- ------- ------- -------|------- ------- ------- -------|
D|-------------------------------|-------------------------------|
A|-------------------------------|5-------5-------7-------7------|
E|5-------5-------5-------5------|-------------------------------|
  just    get     bored,  don't ask   me      why.


G|------- ------- ------- -------|------- ------- ------- -------|
D|-------------------------------|-------------------------------|
A|5-------5-------5-------5------|5-------5-------5-------5------|
E|-------------------------------|-------------------------------|
                                  Just wanna keep doing all the 


G|------- ------- ------- -------|------- ------- ------- -------|
D|-------------------------------|-------------------------------|
A|5-------5-------5-------5------|5-------5-------5-------5------|
E|-------------------------------|-------------------------------|
  dirty little things I           do,


G|------- ------- ------- -------|------- ------- ------- -------|
D|-------------------------------|-------------------------------|
A|7-------7-------7-------7------|7-------7-------7-------7------|
E|-------------------------------|-------------------------------|
          Not     work    all     day in  an  of  -   fice just to


G|------- ------- ------- -------|------- ------- ------- -------|
D|-------------------------------|-------------------------------|
A|7-------7-------7-------7------|7-------7-------7-------7------|
E|-------------------------------|-------------------------------|
  bring   my      mo- ney back to you,


G|------- ------- ------- -------|------- ------- ------- -------|
D|-------------------------------|-------------------------------|
A|-------------------------------|-------------------------------|
E|5-------5-------5-------5------|5-------5-------5-------5------|
  sorry, baby.


G|------- ------- ------- -------|------- ------- ------- -------|
D|-------------------------------|-------------------------------|
A|-------------------------------|-------------------------------|
E|5-------5-------5-------5------|5-------5-------5-------5------|


Outro:
G|------- ------- ------- -------|------- ------- ------- -------|
D|-------------------------------|-------------------------------|
A|-------------------------------|-------------------------------|
E|5------------------------------|-------------------------------|
fade out...

Please e-mail me for any corrections, or write a comment.
comments
We did not receive enough feedback on this tab! Please rate:
print report bad tab
1 2 3 4 5
I want to post or [tab]
guest
You may want to rate the tab now too:
select rating
Please do not post tabs as comments. Select "correction" instead!