Oops, an error
Loading. Please wait.

My Generation Bass Tab

by Who
ver2
ver2

Solo

Whole song

More versions @911Tabs.com
150,350 views 417 this week
35 commentsread comments
1 2 3 4 5
excellent!
x 81
Autoscroll
+/-
esc
set tempo
stop
Contributor
Tabbers playing skills
beginner ++
Hey! There's an official Ultimate Guitar app which is ideal
for learning songs when you're away from computer. Get the app
WARNING: You are trying to view
                                    content from Ultimate-Guitar.com
                                    in an unauthorized application,
                                    which is prohibited.

                                    Please use an official Ultimate
                                    Guitar Tabs application for iPhone,
                                    iPad or Android to access legitimate
                                    chords, guitar, bass, and drum tabs
                                    from Ultimate-Guitar.com database.

                                    Type "ultimate guitar tabs" in Apple
                                    App Store's or Android Market's
                                    search to find the application.
"My Generation" by the Who
Bass part by John Entwistle
Tabbed by Dan Bogosian (UtBDan)
Visit UtBDan's band at:
http://www.geocities.com/underthbed/

Intro
G--------------------------|
D—3h5--5--5--5--3--3--3--3-|
A--------------------------|
E--------------------------|

Verse Setup (1, 2, pre-chorus)
G------------------------|
D-5--5--5—5--3~~-3-3-3-3-|
A------------------------|
E------------------------|

Verse Setup (3, 4)
G-------------------------|
D-5--5--5--5--3--3--3--3--|
A-------------------------|
E-------------------------|

Verse 1, 3
G--------------------------------|
D-3-5-5-5-0h3-5--5-5-3-3-3-3-5-5-|
A--------------------------------|
E--------------------------------|

Verse 2
G-------------------------------|
D-3-5-5-5-3-5-5-5-3~~~3-3-3-5-5-|
A-------------------------------|
E-------------------------------|

Verse 4
G-------------------------------|
D-3-5-5-5-3-5-5-5-3-3-3-3-3-5-5-|
A-------------------------------|
E-------------------------------|

Chorus Part 1
G-------------------------------|
D-5--5--5-5-5-5--3-3-3-3~~3-3-3-|
A-------------------------------|
E-------------------------------|

Chorus Part 2
G-------------------------------|
D-5--5--5-5-5-5--3-3-3-3~~3-3---|
A-------------------------------|
E-------------------------------|

Midway Verse Setup
G--------------------------|
D-5--5--5--5--3--3--3--3—5-|
A--------------------------|
E--------------------------|

Bass Solo Verse 1
G-----5h7—5(5)h3----3-----------|
D--5-------------5----5h3-3-----|
A-------------------------5—--5-|
E-------------------------------|

Bass Solo Verse 2 (NOTE: "13" is 1-3 quickly, not 13th fret)
G----------------------------|
D--5—5h3---------------3--4--|
A-------5h3--1-----13h5------|
E---------------3------------|

Bass Solo Verse 3
G-----5h7—5h3-3-3-----------------|
D--5---------------5h3-3----------|
A---------------------5-5h3—-1----|
E-------------------------------3-|

Bass Solo Verse 4 (so fast it sounds like he's playing notes he's not!)
G---------------------------------3----|
D--5—-555-3--333---------------5----5--|
A---------------3-333-1--1-------------|
E----------------------------3---------|

Later Verse Setup (1, 3)
G--------------------------|
D-7--7--7--7--5--5--5--5—7-|
A--------------------------|
E--------------------------|

Later Verse Setup (2, 4, 5)
G-----------------------------|
D-7--7--7--7--5--5--5-5-5-5—7-|
A-----------------------------|
E-----------------------------|

Later Verse Setup (Crazy 1)
G-----------------------------|
D-7777777777--5--5--5-5-5-5—7-|
A-----------------------------|
E-----------------------------|

Later Verse Setup (Crazy 2)
G---------------------------|
D-7777777777--5555555555555-|
A---------------------------|
E---------------------------|

Ending Setup 1
G----------------------------|
D-8--8—-8-8-8-8--6-6-6-6--66-|
A----------------------------|
E----------------------------|

Ending Setup (2, 3)
G---------------------------|
D-8--8—-8--8--8--6--6--6--6-|
A---------------------------|
E---------------------------|

Pure Ending 1
G----------------------------------|
D-6666666666-7-7-7-8-8-8-8-8-8-8-8-|
A----------------------------------|
E----------------------------------|

Pure Ending 2
G------------------------------|
D-6-6-6-6~~~6-6-6--8--8--8--8--|
A------------------------------|
E------------------------------|

Pure Ending 3
G---------------------------|
D-6--666666-8-8-8-8-8-8-8-8-|
A---------------------------|
E---------------------------|

Pure Ending 4
G---------------------------------|
D-6-6-6-6-6-6-6-6-8-8-8-8-8-8-8-8-|
A---------------------------------|
E---------------------------------|

Pure Ending 5
G-----------------------|
D-6-6-6-6-6-6-8-8---10--|
A-----------------------|
E-----------------------|

WELL, THERE YOU HAVE IT.
If you hadn't noticed, this ending is very hard to describe right. These tabs are 100% 
if you listen CLOSELY - the solo and all. At times it will sound like he's hammering and 
in the solo when he's not, near the end you may find that most tabs don't mention that he
changes notes. This is tabbed off the sheet music, and a lot of time was spent in it by 
IT'S 100% ACCURATE! Enjoy.

~Dan
comments
print report bad tab
35 comments total. Showing first comments.
+5 reply
atc228 wrote on August 4 2005, 12:00 am

i love the bass solo, great tab man

+2 reply
grimreaper65 wrote on September 5 2005, 12:00 am

the last part of the bass solo sounds like it has too many notes, other than that, awesome tab

+2 reply
grimreaper65 wrote on September 5 2005, 12:00 am

oh wait, no i was wrong, sorry, perfect tab...

I want to post or [tab]
guest
You may want to rate the tab now too:
select rating
Please do not post tabs as comments. Select "correction" instead!