Oops, an error
Loading. Please wait.

Quadrophenia Tab

by Who
ver1
ver1

Album

Whole song

Interactive

More versions @911Tabs.com
28,514 views 39 this week
6 commentsread comments
1 2 3 4 5
excellent!
x 13
Autoscroll
+/-
esc
set tempo
stop
Contributor
Difficulty
intermediate
Hey! There's an official Ultimate Guitar app which is ideal
for learning songs when you're away from computer. Get the app
WARNING: You are trying to view
                                    content from Ultimate-Guitar.com
                                    in an unauthorized application,
                                    which is prohibited.

                                    Please use an official Ultimate
                                    Guitar Tabs application for iPhone,
                                    iPad or Android to access legitimate
                                    chords, guitar, bass, and drum tabs
                                    from Ultimate-Guitar.com database.

                                    Type "ultimate guitar tabs" in Apple
                                    App Store's or Android Market's
                                    search to find the application.
#----------------------------------PLEASE NOTE---------------------------------#
#This file is the author's own work and represents their interpretation of the #
#song. You may only use this file for private study, scholarship, or research. #
#------------------------------------------------------------------------------#

Quadrophenia
By The Who, 1973
All songs written by Pete Townshend ©1972, 1973 Fabulous Music Ltd. 

==============
transcribed by          orig compilation        Whotabs
litgo@aol.com           10-18-1998              www.thewho.net/whotabs
==============
except where otherwise noted

Second Edition  

NOTE: Everything included herein is approximate and represents the 
contributors' interpretations. This information may be used for private 
study, scholarship or research only. 

Contents:

Song                           Transcription type
-------------------------------------------------
The Real Me                    Crd/Tab & Btab
Quadrophenia                   Tab
Cut My Hair                    Tab
The Punk and the Godfather     Crd
I'm One                        Tab
The Dirty Jobs                 Crd/Tab
Helpless Dancer                Crd/Tab
Is it in my Head?              Tab
I've Had Enough                Tab
5.15                           Tab
Sea and Sand                   Tab
Drowned                        Tab 
Bell Boy                       Crd
Doctor Jimmy                   Crd
The Rock                       Tab
Love Reign O'er Me             Tab

================================================================================
#----------------------------------PLEASE NOTE---------------------------------#
#This file is the author's own work and represents their interpretation of the #
#song. You may only use this file for private study, scholarship, or research. #
#------------------------------------------------------------------------------#


The Real Me
By The Who, Written by Pete Townshend, 1973 
©1973 Fabulous Music Ltd.

==============
transcribed by
litgo@aol.com                04-03-1999
==============

Capo on 3

Cm   x35588           Fadd9/C  x37563
Bb   xx3366           F/C      x33568
F    xx3565           Cm7      x38888

[intro]
|Cm  Cm  | Bb C Bb C|Cm  Cm |   Bb F |Cm     |   Bb F |Cm     |   Bb F |
|8-------|----------|----8--|---6--5-|8---8--|---6--5-|----8--|---6--5-|
|8-------|----------|----8--|---6--6-|8---8--|---6--6-|----8--|---6--6-|
|5---5---|----5---5-|5---5--|---3--5-|5---5--|---3--5-|5---5--|---3--5-|
|5---5---|----5---5-|5---5--|---3--3-|5---5--|---3--3-|5---5--|---3--3-|
|3---3---|----3---3-|3------|--------|3------|--------|3------|--------|
|--------|--6---6---|-------|--------|-------|--------|-------|--------|

[verse]
|Cm                   |         Bb Cm Bb Cm Bb |
    I went back to the doctor               to
|---------------------|------------------------|
|---------------------|------------------------|
|5--------------------|--------(3)-5-(3)-5-(3)-|
|5--------------------|--------(3)-5-(3)-5-(3)-|
|3--------------------|------------3-----3-----|
|---------------------|---------6-----6-----6--|

|Cm   Cm    |       Bb Cm Bb Cm Bb |
 Get another shrink      I sit and 
|-----------|----------------------|
|-----8-----|----------------------|
|5----5-----|------(3)-5-(3)-5-(3)-|
|5----5-----|------(3)-5-(3)-5-(3)-|
|3----3-----|----------3-----3-----|
|-----------|-------6-----6-----6--|

|Cm        Cm     |       Bb Cm Bb Cm Bm |
 Tell him 'bout my weekend         but he 
|-----------------|----------------------|
|----------8------|----------------------|
|5---------5------|------(3)-5-(3)-5-(3)-|
|5---------5------|------(3)-5-(3)-5-(3)-|
|3---------3------|----------3-----3-----|
|-----------------|-------6-----6-----6--|

|Cm      Cm           |       Bb F        |
 Never betrays what he thinks
|8-------8------------|-------6--5--------|
|8-------8------------|-------6--6--------|
|5-------5------------|-------3--5-----5/5|
|5-------5------------|-------3--3-----5/5|
|3-------3------------|----------------3/3|
|---------------------|-------------------|

[chorus]
|Cm               |Cm7     |Fadd9/C|F/C        |
   Can you see the real me? Doctor, doctor
|8-------------8/8|8-------|3------|8----------|
|8-------------8/8|8-------|6------|6----------|
|5-------------8/8|8-------|5------|5-------5/5|
|5-------------8/8|8-------|7------|3-------5/5|
|3-------------3/3|3-------|3------|3-------3/3|
|-----------------|--------|-------|-----------|

|Cm               |Cm7      |Fadd9/C|       |
   Can you see the real me?  Doctor, whoa,  
|8-------------8/8|8--------|3------|8------|
|8-------------8/8|8--------|6------|6------|
|5-------------8/8|8--------|5------|5------|
|5-------------8/8|8--------|7------|3------|
|3-------------3/3|3--------|3------|3------|
|-----------------|---------|-------|-------|

[repeat intro]
|Cm  Cm   |   Bb F |Cm     |    Bb F |
 Doctor...
|----8----|---6--5-|-------|----6--5-|
|----8----|---6--6-|-------|----6--6-|
|5---5----|---3--5-|-------|----3--5-|
|5---5----|---3--3-|-------|----3--3-|
|3---3----|-------3|6^/3---|---------|
|---------|--------|-------|---------|

[repeat verse]
I went back to my mother, I said, I'm crazy, ma, help me
She said, I know how it feels, son, 'cause it runs in the family

[repeat chorus]
Can you see the real me? Mother, Mother
Can you see the real me? Mother, whoa, mama

|Cm           |Cm7          |Fadd9/C      |F/C                  |Cm
   Can you see,  can you see,  can you see, can you see the real me?
|8------------|8------------|3------------|8----8---8----8------|
|8------------|8------------|6------------|6----6---6----6------|
|5---x--5-5-5-|8---x--------|5---x--------|5----5---5----5------|
|5-5-x--5-5-5-|8---x-8--8-8-|7---x-7-7-7--|3----3---3----3------|
|3-3----3-3-3-|3-3---3--3-3-|3-3---3-3-3--|3----3---3----3------|
|-------------|-------------|-------------|---------------------|

       |Cm7         |Fadd9/C        |         |
Can you see, can you see the real me me me me?

|Cm    |Cm7     |Fadd9/C   |F/C    

The cracks between the paving stones look like rivers of flowing veins
Strange people who know me peeping from behind every window pane
The girl I used to love lives in this yellow house
Yesterday she passed me by, she doesn't want to know me now

[repeat chorus]
|Cm               |Cm7     |Fadd9/C |F/C     |
   Can you see the real me? Can you, can you?

Can you see the real me? Can ya, oh, yeah. 

    Cm  Bb Cm  Bb  Cm   Bb Cm Bb  Bb F 
||--------------------|-----------6--5----||
||--------------------|-----------6--6----||
||.-5--(3)-5--(3)--5--|(3)-5--(3)-3--5---.||
||.-5--(3)-5--(3)--5--|(3)-5--(3)-3--3---.||
||--3------3-------3--|----3--------------||
||------6------6------|-6------6----------||

I ended up with the preacher, full of lies and hate
I seemed to scare him a little, so he showed me to the golden gate

[repeat chorus]
|Cm               |Cm7     |Fadd9/C  |F/C      |
   Can you see the real me? Preacher, Preacher?

Can you see the real me? Preacher? 

||:Cm      |Cm7     |Fadd9/C |F/C   :||

Can you see, can you see, can you see, oh 
Can you see the real me? Doctor?

|Cm               |Cm7      |Fadd9/C|F/C   
   Can you see the real me?  Mo......ther 

Can you see the real me..............

--------------------------------------------------------------------
#----------------------------------PLEASE NOTE---------------------------------#
#This file is the author's own work and represents their interpretation of the #
#song. You may only use this file for private study, scholarship, or research. #
#------------------------------------------------------------------------------#

The Real Me (Bass transcription)
Transcribed by scott evans (gse@ocsystems.com)

|17-------------|------17/20--|---------15--15--17--|
|----15h17------|--17---------|--15/17--------------|
|-----------15--|-------------|---------------------|
|---------------|-------------|---------------------|

|---------------8------10--|----12--10--15--12--17--15------|
|--------8---------10------|10--------------------------17--|
|--8h10-----10-------------|--------------------------------|
|--------------------------|--------------------------------|

   verse                                                                
|----------------------------------|-----------------------------------|
|----------------------------------|-----------------------------------|
|---------------------1--3h6--3/8--|------------------------1--3/6/10--|
|---0--1--1--2--2--3---------------|--0--1------1--2--2--3-------------|

                                                                        
|-------------------8------10--8--|--10--12--10------------------------|
|-----------10--10-----10---------|--------------12------10--8---------|
|---------------------------------|-----------------------------10--8--|
|--8--8--8------------------------|------------------------------------|

   chorus                                                     
|---------------------------|-----------------|-----------5--|
|---------------------------|-----------------|--------------|
|---3--3--3--3-----6--5--3--|--3-----6--5--3--|--3--3--3-----|
|---------------3-----------|-----3-----------|--------------|

                                                         
|-------------------------|-----------------5--5--5--5--|
|-------------------------|-----------------------------|
|----3--3-----3--6--5--3--|-----3--6--5--3--------------|
|----------3--------------|--3--------------------------|

   verse feel                                                   
|---------|---------------------------|--15--17---------15-----|
|---------|---------------------------|----------15h17---------|
|---3/15--|---------------------1/3/6/|---------------------15/|
|---------|--0--1--1--2------2--------|------------------------|

   verse                                           
|---------------------------|---------------------|
|---------------------------|--10--10--10-----10--|
|------------------------3--|---------------------|
|---0--1--1--2--2--3--3-----|---------------------|

                                                          
|--------------------------------|-----------------------|
|--------------------------1-----|-----------------------|
|-----------------1-----3-----3--|-----------------------|
|--0--1--2--3--3-----3-----------|--0--1--1--2--2--3--3--|

   chorus                                                         
|------------------------------|-----5--5--5/17--17--17--17--17--|
|------------------------------|---------------------------------|
|---3--3--3--3--------6--5--3--|--3------------------------------|
|------------------3-----------|---------------------------------|

                                                                 
|------17------17---------15----------|-17----------15----------|
|----------17------15h17----------17--|-----15--17------17--15--|
|--15---------------------------------|-------------------------|
|-------------------------------------|-------------------------|

   cool part                                      
|------------------------------------------------|
|------------------------------------------------|
|---3--3--3-----------------------------1--1-----|
|------------0--0--1--1--1--2--2--3--3-----------|

                                 
|-------------------------------|
|1-----3-----5--3--8--3--10--8--|
|---3-----3---------------------|
|-------------------------------|

                                                  
|-------------------------------8------10--8-----|
|-----------10--10--10--10--10-----10------------|
|------------------------------------------------|
|--8--8--8---------------------------------------|

                                                                       
/12--10-------------------|--15--17-------------|--15--17--20--20\17--|
---------10--12--8--8/10--|----------15h17------|---------------------|
--------------------------|-----------------15--|---------------------|
--------------------------|---------------------|---------------------|

                                                        
|--------------15--17--15------------------------------|
|--15-----/17--------------17--16--15------------------|
|--------------------------------------18--15--13--15--|
|------------------------------------------------------|
                                                        

                                                            
|--------------------------|--3----5--3--------------------|
|--------------------------|-------------5--4--3-----------|
|--------------0--1--2--3--|----------------------6-----3--|
|--0--1--1--2--------------|-------------------------6-----|

                                                        
|-----------------------------------------------------||
|-----------------------------------------------------||
|-----------------------------------------------------||
|--0--0--1--1--2--2--3--3--4--4--1--1--2--2--3--3-----||

================================================================================
#----------------------------------PLEASE NOTE---------------------------------#
#This file is the author's own work and represents their interpretation of the #
#song. You may only use this file for private study, scholarship, or research. #
#------------------------------------------------------------------------------#

Quadrophenia
By The Who, Written by Pete Townshend, 1973 
©1973 Fabulous Music Ltd.

==============
transcribed by
litgo@aol.com                rev 06-10-2001
==============

Lead guitar 1: capo 1    (clean)
Lead guitar 2: standard tuning  (clean)
Lead guitar 3: tune down 1/2 step to Eb (Eb Ab Db Gb Bb Eb)  (overdriven)
Lead guitar 4: tune down 1/2 step to Eb (Eb Ab Db Gb Bb Eb)  (clean)
Lead guitar 5: tune down 1/2 step to Eb (Eb Ab Db Gb Bb Eb)  (overdriven)

Rhythm guitar 1: capo 1  (overdriven)
Rhythm guitar 2: standard tuning  (overdriven)
Rhythm guitar 3: tune down 1/2 step to Eb (Eb Ab Db Gb Bb Eb)  (overdriven)
Rhythm guitar 4: tune down 1/2 step to Eb (Eb Ab Db Gb Bb Eb)  (clean, reverb)

Acoustic guitar 1: capo 3
Acoustic guitar 2: capo 1

Acoustic and keyboard-arr-for-guitar chords
F5          x3356x
Eb5         x65346
Abmaj9      4tx6546

F           133211 and 133511
Dm          xx7765
Eb          xx1343
Ab         4tx1144
Bb          x1333x
C           x3555x
Db          x4666x

Abmaj7     (4t)x6543
Gaug        xx5443
G          (3)x5433
Cm          xx5433
Cm/Bb      (6)x5433
Cm7         x31313 or x35343 or x35346 (acoustic)
Abmaj9      464546  4x6546 (acoustic)

E           x7999x
E7          x7675x
Am         5tx7555
Am6        5tx7575

Ebmsus4     xx1344
Ebmsus4/Db  x41344
Ebm7        xx1342
Ebm7sus2    xx1341
Cbmaj7      xx4342
Cbmaj7b5    xx4341
Abm7        4tx1144



||[keyboard]                                 ||
||:F   Dm Eb|     Ab Bb|   C Db|        Eb F:||
||[acoustic 1]                               ||
||:F5.......|F5........|F5.....|F5..........:||
||[ld gtr 1]                                 ||
||----------|----------|-------|----20-18-16-||
||----------|----------|-------|-------------||
||----------|----------|-------|-------------||
||----------|----------|-------|-------------||
||----------|----------|-------|-------------||
||----------|----------|-------|-------------||

|            Dm Eb |                       Ab Bb|    
|[acoustic 1]                                   |
|F5.....           |F5....                      |
|[ld gtr 1]                                     |
|-18^(20)-16^(17)--|^(19)18-16-18-16------------|
|----------------18|----------------18-16--18-18|
|------------------|----------------------------|
|------------------|----------------------------|
|------------------|----------------------------|
|------------------|----------------------------|

|                                                 C  Bb      |          Eb F|
|[acoustic 1]                                                               |
|F5...                                                       |F5...         |
|[ld gtr 1]                                                                 |
|16h20p16--16h20p16--16h20p16--16h20p16--16h20p16--16h20p16--|16--16h18--21-|
|--------18--------18--------18--------18--------18--------18|--18-----18---|
|------------------------------------------------------------|--------------|
|------------------------------------------------------------|--------------|
|------------------------------------------------------------|--------------|
|------------------------------------------------------------|--------------|
|[rhythm gtr 1]                                                             |
|------------------------------------------------------------|--------------|
|------------------------------------------------------------|---------10-10|
|------------------------------------------------------------|---------10-10|
|------------------------------------------------------------|---------10-10|
|------------------------------------------------------------|---------8--8-|
|------------------------------------------------------------|--------------|


|                   Dm  Eb|                 Ab Bb|                     C Db|
|[acoustic 1]                                                              |
|F5..........             |          %           |             %           |
|[ld gtr 1]                                                                |
|18^-16--16---18^-16-18-16|18^-16---16-------13--|-------------------------|
|------18------------18-16|----16-18--18---16--16|16^(18)---^(18)16-16-13--|
|-------------------------|----------------------|-----------------------15|
|-------------------------|----------------------|-------------------------|
|-------------------------|----------------------|-------------------------|
|-------------------------|----------------------|-------------------------|
|[rhyth gtr 1]                                                             |
|---------------------5--3|-------------------4-6|-------------------------|
|10-------------------6--4|-------------------4-6|-------------------------|
|10-------------------7--3|-------------------1-3|---------------------5-6-|
|10-------------------7--1|-------------------1-3|---------------------5-6-|
|8------------------------|---------------------1|---------------------7-8-|
|-------------------------|-------------------4--|-------------------------|

|                    Eb  F|                  Dm Eb|                   Ab Bb|
|[acoustic 1]                                                              |
|          %              |            %          |             %          |
|[ld gtr 1]                                                                |
|------------------13-----|-----------------------|------------------------|
|--------------------16-13|16^(18)--^(18)16\p14-16|16^(18)---^(18)16\p14-16|
|--------13-15/17-1-------|-----------------------|------------------------|
|15-13-15-----------------|-----------------------|------------------------|
|-------------------------|-----------------------|------------------------|
|-------------------------|-----------------------|------------------------|
|[rhyth gtr 1]                                                             |
|-------------------------|-------------------5--3|---------------------4-6|
|--------------------10-10|-------------------6--4|---------------------4-6|
|------------------8-10-10|-------------------7--3|---------------------1-3|
|------------------8-10-10|-------------------7--1|---------------------1-3|
|------------------6-8--8-|-----------------------|-----------------------1|
|-------------------------|---------------------1-|---------------------4--|


|                    C Db|                    Eb  F|                Dm  Eb|
|[acoustic 1]                                                             |
|         %              |            %            |F5...........         |
|[ld gtr 1]                                                               |
|------------------------|-------------------------|----------------------|
|16^(18)---^(18)16\p14-16|16^(18)---^(18)16\-------|----------------------|
|------------------------|------------------15p13--|--13~--15^-15-13---15^|
|------------------------|-----------------------15|15---15---------15----|
|------------------------|-------------------------|----------------------|
|------------------------|-------------------------|----------------------|
|[rhyth gtr 1]                                                            |
|------------------------|------------------3-3---1|------------------5--3|
|------------------------|------------------4-4---1|------------------6--4|
|---------------------5-6|------------------3-3---2|------------------7--3|
|---------------------5-6|------------------1-1---3|------------------7--1|
|---------------------7-8|------------------------3|----------------------|
|------------------------|----------------------1-1|----------------------|

|                     Ab  Bb|                       C  Db |
|[acoustic 1]                                             |
|           %               |              %              |
|[ld gtr 1]                                               |
|---------------------------|-----------------------------|
|-------------------------13|--13--------13-----13-16^(18)|
|15-13--15^-15-13---13--13--|13--13-13-15--13-15----------|
|-----15---------15---------|-----------------------------|
|---------------------------|-----------------------------|
|---------------------------|-----------------------------|
|[rhyth gtr 1]                                            |
|------------------------4--|--------------------------8-9|
|------------------------4--|--------------------------8-9|
|------------------------1-3|--------------------------5-6|
|------------------------1-3|--------------------------5-6|
|--------------------------1|-----------------------------|
|------------------------4--|-----------------------------|

|                    Eb  |Eb         |     |    |    |
|[acoustic 1]                                        |
|F5........              |Eb         | ....|..  |    |
|[ld gtr 1]                                          |
|------------------------|-----------|-----|----|----|
|---^(18)16\-------------|-----------|-----|----|----|
|------------15-13---13--|-----------|-----|----|----|
|------------------15--15|13h15------|-----|----|----|
|------------------------|-----------|-----|----|----|
|------------------------|-----------|-----|----|----|
|[rhyth gtr 1]                        [out]          |
|--------------------11--|11---------|-----|----|----|
|--------------------11--|11---------|-----|----|----|
|--------------------8---|8----------|-----|----|----|
|--------------------8---|8----------|-----|----|----|
|------------------------|-----------|-----|----|----|
|------------------------|-----------|-----|----|----|

|Abmaj7   |               |Gaug    |G           |Cm           |Cm/Bb     |
|[acoustic 1]                                                            |
|         |               |        |            |             |          |
|[ld gtr 1]                                                              |
|----16-15|16---15h16p15--|--15----|----15-16-15|-----15-16-15|----18^-18|
|---------|-------------16|18------|------------|--16---------|16--------|
|---------|---------------|--------|------------|-------------|----------|
|---------|---------------|--------|------------|-------------|----------|
|---------|---------------|--------|------------|-------------|----------|
|---------|---------------|--------|------------|-------------|----------|

|Abmaj7              |                     Eb Eb|
|[acoustic 1]                                   |
|                    |                          |
|[ld gtr 1]                                     |
|18-18p16--18^(20)---|18^(20)-18^(20)-----------|
|--------------------|--------------------------|
|--------------------|--------------------------|
|--------------------|--------------------------|
|--------------------|--------------------------|
|--------------------|--------------------------|
|                               [rhyth gtr 1 in]|
|--------------------|----------------------3-3-|
|--------------------|----------------------4-4-|
|--------------------|----------------------3-3-|
|--------------------|----------------------1-1-|
|--------------------|--------------------------|
|--------------------|--------------------------|


|Eb    Cm7|Abmaj9  |Eb   Cm7 |Abmaj9  |
|[acoustic 1]                         |
|Eb5...Cm7|Abmaj9  |Eb5   Cm7|Abmaj9  |
|[ld gtr 1 tacit]                     |
|[rhyth gtr 1]                   [out]|
|3------3-|4----3-3|3-~----3-|4--~----|
|4------1-|4----4-4|4-~----1-|4--~----|
|3------3-|1----3-3|3-~----3-|1--~----|
|1------1-|1----1-1|1-~----1-|1--~----|
|-------3-|--------|-------3-|--------|
|---------|4-------|---------|4--~----|


|Abmaj7   |            |Gaug     |G             |
|[acoustic 1]                                   |
|Abmaj7   |            |Gaug     |G             |
|[ld gtr 1]                                     |
|---------|------------|---------|--------------|
|--9-8-9p8|------------|---------|15-15----16-18|
|---------|8---8/10-12-|/16-16h17|--------------|
|---------|------------|---------|--------------|
|---------|------------|---------|--------------|
|---------|------------|---------|--------------|

|Cm            |Cm/Bb   |Abmaj7   |         |
|[acoustic 1]                               |
|Cm            |Cm/Bb   |Abmaj7   |         |
|[ld gtr 1]                                 |
|--------------|--22-20-|---------|--22-20--|
|18-18^(20)----|--------|20-------|-------20|
|--------------|--------|---------|---------|
|--------------|--------|---------|---------|
|--------------|--------|---------|---------|
|--------------|--------|---------|---------|
|                           [rhyth gtr 1 in]|
|--------------|-------|----------|------3-3|
|--------------|-------|----------|------4-4|
|--------------|-------|----------|------3-3|
|--------------|-------|----------|------1-1|
|--------------|-------|----------|---------|
|--------------|-------|----------|---------|

|Eb      Cm7 |Abmaj9                         |
|[acoustic 1]                                |
|Eb5.....Cm7 |Abma9................          |
|[ld gtr 1]                                  |
|--18--------|18^(20)-18^(20)-18^(20)-18-16--|
|18^--18^----|-----------------------------18|
|------------|-------------------------------|
|------------|-------------------------------|
|------------|-------------------------------|
|------------|-------------------------------|
|[rhyth gtr 1]                               |
|3---------3-|4---------------------------3-3|
|4---------1-|4---------------------------4-4|
|3---------3-|1---------------------------3-3|
|1---------1-|1---------------------------1-1|
|----------3-|-------------------------------|
|------------|4------------------------------|


|Eb               Cm7 |Abmaj9             |
|[acoustic 1]                             |[out]
|Eb5..............Cm7 |Abmaj9..........   |
|[ld gtr 1]                               |
|---------------------|-----18^-18^-18-16-|
|(18)^-18^---18^\-16--|-------------------|
|---------------------|-------------------|
|---------------------|-------------------|
|---------------------|-------------------|
|---------------------|-------------------|
|[rhyth gtr 1]                       [out]|
|3------------------3-|4------------------|
|4------------------1-|4------------------|
|3------------------3-|1------------------|
|1------------------1-|1------------------|
|-------------------3-|-------------------|
|---------------------|4------------------|
|[rhyth gtr 2 in]                         |
|---------------------|-------------------|
|---------------------|-------------------|
|---------------------|-------------------|
|---------------------|-------------------|
|---------------------|-------------------|
|---------------------|------------------0|

[guitar change to no capo, standard tuning; acoustic out]
|E          |           |E        |         |E         |
|[ld gtr 1]                                       [out]|
|14---12----|11---9-----|7---5----|4---2----|----------|
|-----------|-----------|---------|---------|5----4----|
|-----------|-----------|---------|---------|----------|
|-----------|-----------|---------|---------|----------|
|-----------|-----------|---------|---------|----------|
|-----------|-----------|---------|---------|----------|
|[rhtyh gtr 2]                                         |
|0----------|-----------|0-----0--|---------|0---------|
|0----------|-----------|0------0-|---------|0---------|
|1----------|--1-2/4-2-1|1-------1|---------|1---------|
|2----------|--2-4/6-4-2|2--------|2--------|2---------|
|2----------|-----------|2--------|---------|2---------|
|-----------|-----------|0--------|---------|0---------|
|                       |[horn arr for gtr] |     
|                      e|---------|---------|     
|                      b|---------|---------|     
|                      g|---------|---------|     
|                      d|---------|---------|     
|                      a|---------|---------|     
|                      e|0--2--4--|4--2--0--|     

|                |E      |      |E      |        |D       |             |
|[rhtyh gtr 2]                                                          |
|---0------------|---0---|------|0------|-----0-0|-----0-0|0-0-0-0-0-0-0|
|--/12-10--9-10-9|10---9-|------|0-0-0-0|-0-0-0-0|-0-0-0-0|0-0-0-0-0-0-0|
|--/13-11--9-11-9|11---9-|------|1-1-1-1|/2-2-2-2|/4-4-4-2|2---1-1-2-2/4|
|----------------|-------|------|2-2-2-2|/4-4-4-4|/6-6-6-4|4---2-2-4-4/6|
|----------------|-------|------|2-2-2-2|--------|--------|-------------|
|----------------|-------|------|0------|--------|--------|-------------|
|                |[horn]        |
|               e|-------|------|
|               b|-------|------|
|               g|-------|------|
|               d|-------|------|
|               a|-------|------|
|               e|0--2--4|4-2-0-|

|E       |         |E/D      |       |E        |     |     |     |
|[rhtyh gtr 2]                                                   |
|0-------|------0-0|0---0--0-|----0--|---------|-----|-----|-----|
|0---0---|-----/5-5|5-5-7--7/|9--10-/|12~------|-----|-----|-----|
|4\2-2/4-|---------|---------|-------|---------|-----|-----|-----|
|6\4-4/6-|---------|---------|-------|---------|-----|-----|-----|
|--------|---------|---------|-------|---------|-----|-----|-----|
|--------|---------|---------|-------|---------|-----|-----|-----|
|                                    |[piano low E]  |     |     |
|                                   E|0---0----|0--0-|-0-0-|-0-0-|
|                                    |[horn]   |     |           |
|                                   e|4---4--5-|7----|-----|-----|
|                                   b|--7------|-----|-----|-----|
|                                   g|---------|-----|-----|-----|
|                                   d|---------|-----|-----|-----|
|                                   a|---------|-----|-----|-----|
|                                   e|---------|-----|-----|-----|

  [violin arr for guitar]  [implied chords]           x2
 ||:E     /       E7     /  |Am    /     Am6   /    :||
e||-------------------------|------------------------||
b||----------10---12-10-12--|13-12-13-12-------------||
g||.13-11-13---------------9|------------14-13-14-10.||
d||.------------------------|-----------------------.||
a||-------------------------|------------------------||
e||-------------------------|------------------------||
 ||[piano arr for guitar]                            ||
e||-0--------------0--------|-0-----------0----------||
b||-------------------------|------------------------||
g||.------------------------|-----------------------.||
d||.------------------------|-----------------------.||
a||-------------------------|------------------------||
e||-------------------------|------------------------||

  [violin 1]                                           x2
 ||:E            E7        |Am          Am6        :||
e||------------------------|------------------------||
b||----------10--12-10-12--|13-12-13-12-------------||
g||.13-11-13--------------9|------------14-13-14-10.||
d||.-----------------------|-----------------------.||
a||------------------------|------------------------||
e||------------------------|------------------------||
 ||[violin 2]                                       ||
e||------------------------|------------------------||
b||-----------7---7--9--7--|10-9--10-9--------------||
g||.9--8--9----------------|------------11-9--11-8-.||
d||.----------------------9|-----------------------.||
a||------------------------|------------------------||
e||------------------------|------------------------||

[violins 1 & 2]
|E                       |E                       |
|12-12-12-12-11-11-11-11-|------------------------|
|------------------------|15-15-15-15-14-14-14-14-|
|13-11-13-13-13-11-13-13-|13-11-13-13-13-11-13-13-|
|------------------------|------------------------|
|------------------------|------------------------|
|------------------------|------------------------|

|E                       |E                       |
|------------------------|------------12-12-12-12-|
|13-13-13-13-12-12-12-12-|10-10-10-10-------------|
|13-11-13-13-13-11-13-13-|13-11-13-13-13-11-13-13-|
|------------------------|------------------------|
|------------------------|------------------------|
|------------------------|------------------------|

  [Guitar - no capo]                   x4              x3
||:E      E7        |Am        Am6    :||:E     |     :||      |      |
||[ld gtr 2]                           ||              ||             |
||------------------|------------------||-------|------||------|------|
||----------3---3---|3h5-3-5-3---------||-------|------||------|------|
||.4-2-4--5---5---4-|----------5-4-5-2.||.4---2-|4---2.||4-----|------|
||.-----------------|-----------------.||.------|-----.||------|------|
||------------------|------------------||-------|------||------|------|
||------------------|------------------||-------|------||------|------|

   |E      E7     |Am     Am6     |E        E7    |Am       A6      |
   |[ld gtr 2]                                                      |
---|--------------|---------------|---------------|-----------------|
---|--------------|---------------|---------------|--------------19^|
---|--------------|---------------|---------------|-----------------|
---|--------------|---------------|---------------|-----------------|
---|--------------|---------------|---------------|-----------------|
---|--------------|---------------|---------------|-----------------|
   |[rhyth gtr 2]                                                   |
---|--------------|---------------|---------------|-----------------|
---|12-~----------|13-----10---x-x|12--~-------x-x|13-------10---x-x|
---|9--~----------|9------9----x-x|9---~-------x-x|9--------9----x-x|
---|9--~----------|------------x-x|9---~-------x-x|--------------x-x|
---|--------------|---------------|---------------|-----------------|
0-0|--------------|------------0-0|--------------0|--------------0-0|

|E    E7     |Am   Am6     |E    E7   |Am    Am6     |E   E7 |Am  Am6    |
|[ld gtr 2]                                                        [out] |
|19----------|-----19^\-17-|19--------|-----19^19^17-|19~----|-----------|
|------------|-----19^\----|----------|--------------|-------|-----------|
|------------|-------------|----------|--------------|-------|-----------|
|------------|-------------|----------|--------------|-------|-----------|
|------------|-------------|----------|--------------|-------|-----------|
|------------|-------------|----------|--------------|-------|-----------|
|[rhyth gtr 2]                                                           |
|------------|-------------|----------|--------------|-------|-----0--0--|
|12-~-----x-x|13---10---x-x|12--~--x-x|13----10------|-------|-----12-12-|
|9--~-----x-x|9----9----x-x|9---~--x-x|9-----9-------|-------|-----------|
|9--~-----x-x|----------x-x|9---~--x-x|--------------|-------|-----------|
|------------|-------------|----------|--------------|-------|-----------|
|------------|----------0-0|---------0|--------------|-------|-----------|

|E              |E                 |             |              |
|[rhtyh gtr 2]                                                  |
|0--0-----0--0--|0--0--0--0--0--0--|0--0--0--0---|-------0-0-0--|
|12-10/12-12----|12-13-17-15-13-12-|12-10-9---0--|-------0-0-0--|
|---------------|------------------|-----------4-|-----2/4-4-4--|
|---------------|------------------|------------2|-----4/6-6-6--|
|---------------|------------------|-------------|2-------------|
|---------------|------------------|-------------|-0------------|

                                                         [horn in]
|E           |          |               |              |      |        |
|[rhyth gtr 2]                           [tremelo pick]                |
|---------0--|------0---|---------------|--------------|------|--------|
|0---0----0--|------0---|------------0--|--------------|------|--------|
|4-(4)^\^\-4^|\--4^\-4^\|------------1--|-1/2/4/6/4/2/1|------|--------|
|------------|----------|/7--6h7p6-4-2--|-2/4/6/7/6/4/2|2/2/2-|--------|
|------------|----------|----------0----|--------------|------|--------|
|------------|----------|---------------|--------------|------|--------|
                                                       |[horn]|        |
                                                       |--4---|5-7-----|
                                                       |------|----7--5|
                                                       |------|--------|
                                                       |------|--------|
                                                       |------|--------|
                                                       |------|--------|

[piano only and horn only]
|Ab             |          |         |            |


[Guitar change: tune down to Eb (Eb Ab Db Gb Bb Eb)]
|Ab             |Ab       |Ab           |     |Ab        |     |     |
|[rhyth gtr 3]                                                       |
|---------------|---------|-------------|-----|----------|-----|-----|
|-------2h3---2h|3--2h3---|-------------|-----|----------|-----|-----|
|-------2--4--2h|4--2h4---|2----2-----2-|--2-2|----------|-----|-----|
|---------------|---------|2h4--2h4---2h|4-2-4|p2--------|-----|-----|
|---------------|---------|-------------|-----|----2h4-2-|0----|-----|
|---------------|---------|-------------|-----|----------|-----|-----|
|[rhyth gtr 4]                                                       |
|---------------|---------|-------------|-----|----------|-----|-----|
|---------3-----|3---3----|--3----3--3--|-3-3-|--3--3--3-|-----|-----|
|---------2-----|2---2----|--2----2--2--|-2-2-|--2--2--2-|-----|-----|
|---------------|---------|-------------|-----|----------|-----|-----|
|---------------|---------|-------------|-----|----------|-----|-----|
|---------------|---------|-------------|-----|----------|-----|-----|

 [6/8]
[piano arr for guitar]
 ||:Ab    :||
e||--------||
b||-9--9---||
g||.-8--8-.||
d||.--6--6.||
a||--------||
e||--------||

[6/8]
    |[acoustic 2 in]                                         |
(Db)|Ebmsus4  |. |. |...       |Ebmsus4/Db  |.....     |...  |
    |[ld gtr 3]                                              |
----|---------|--|--|----------|------------|----------|-----|
----|---------|--|--|----------|------------|----------|-----|
----|---------|--|--|----------|------------|----7--9-9|-----|
----|7/9------|--|--|----9\---5|5h7---------|7/9-------|-----|
----|---------|--|--|------5h7-|------------|----------|-----|
----|---------|--|--|----------|------------|----------|-----|

[6/8]
|[acoustic 2]                                                            |
|......            |Ebmsus4 |.......            |.........               |
|[ld gtr 3]                                                              |
|------------------|7-------|---^(10)9\-7-------|------------------------|
|------------------|--------|-------------8-----|----^(12)10\-(8)h10p8p10|
|-----^(11)9\-9-7/9|--------|--------------9--7h|9-----------------------|
|------------------|--------|-------------------|------------------------|
|------------------|--------|-------------------|------------------------|
|------------------|--------|-------------------|------------------------|

[6/8]
|[acoustic 2]             |
|........     |Emsus4/Db  |
|[ld gtr 3]               |
|-------------|------12-12|
|--------12-12|12---------|
|12~----------|-----------|
|---14--------|-----------|
|-------------|-----------|
|-------------|-----------|

[6/8]
|[acoustic 2]                                                            |
|.......          |........          |.....                              |
||[ld gtr 3]                                                             |
|12-12-12-12-12-12|12-12-12-/17-17-17|15h17-15h17-15h17-15h17-15h17-15h17|
|-----------------|------------------|-----------------------------------|
|-----------------|------------------|-----------------------------------|
|-----------------|------------------|-----------------------------------|
|-----------------|------------------|-----------------------------------|
|-----------------|------------------|-----------------------------------|

[6/8]
|Ebm7*  |       |       |       |Cbmaj7 |       |Abm7       |            |
|[acoustic 2]                                                            |
|2-2-1-1|2-2-1-1|2-2-1-1|2-2-1-1|2-2-1-1|2-2-1-1|4-4-4--4---|4--4--4--4--|
|4-4-4-4|4-4-4-4|4-4-4-4|4-4-4-4|4-4-4-4|4-4-4-4|4-4-4--4---|4--4--4--4--|
|3-3-3-3|3-3-3-3|3-3-3-3|3-3-3-3|3-3-3-3|3-3-3-3|1-1-1--1---|1--1--1--1--|
|1-1-1-1|1-1-1-1|1-1-1-1|1-1-1-1|4-4-4-4|4-4-4-4|1-1-1--1---|1--1--1--1--|
|-------|-------|-------|-------|-------|-------|-----------|------------|
|-------|-------|-------|-------|-------|-------|4-4-4--4---|4--4--4--4--|
|[ld gtr 3]                                                              |
|15-14--|12--10-|-------|-------|-------|-------|-----------|------------|
|-------|-------|12--10-|8---7--|5------|-------|-----------|------------|
|-------|-------|-------|-------|----7--|5---4--|2-----0h2--|------------|
|-------|-------|-------|-------|-------|-------|----5------|2h4----2p0h2|
|-------|-------|-------|-------|-------|-------|-----------|------------|
|-------|-------|-------|-------|-------|-------|-----------|------------|
|[ld gtr 4]                                                              |
|12-10--|-------|-------|-------|-------|-------|-----------|------------|
|-------|12--10-|8---7--|-------|-------|-------|-----------|------------|
|-------|-------|-------|9---7--|5---4--|2------|-----------|------------|
|-------|-------|-------|-------|-------|----5--|4---2------|--0---0h2---|
|-------|-------|-------|-------|-------|-------|-----------|------------|
|-------|-------|-------|-------|-------|-------|-----------|------------|
|[ld gtr 5]                                                        [out] |
|19-17--|15--14-|12--10-|-------|-------|-------|-----------|------------|
|-------|-------|-------|12-10--|8--7---|5------|-----------|------------|
|-------|-------|-------|-------|-------|----7--|5---4------|------------|
|-------|-------|-------|-------|-------|-------|-----------|------------|
|-------|-------|-------|-------|-------|-------|-----------|------------|
|-------|-------|-------|-------|-------|-------|-----------|-----------\|
 [*Ebm7 for acoustic alternates between Ebm7sus2]

[6/8]
|Ebm7      |             |                   |       |
|[acoustic 2]                                        |
|2--2--1-1-|2--2--1---1--|2---2---1---1------|2-2-1-1|
|4--4--4-4-|4--4--4---4--|4---4---4---4------|4-4-4-4|
|3--3--3-3-|3--3--3---3--|3---3---3---3------|3-3-3-3|
|1--1--1-1-|1--1--1---1--|4---4---4---4------|4-4-4-4|
|----------|-------------|-------------------|-------|
|----------|-------------|-------------------|-------|
|[ld gtr 3]                                          |
|15--12h14-|12---10------|-------------------|-------|
|----------|-------------|12------10---------|8--7---|
|----------|-------------|-------------------|-------|
|----------|-------------|-------------------|-------|
|----------|-------------|-------------------|-------|
|----------|-------------|-------------------|-------|
|[ld gtr 4]                                          |
|12---10---|-------------|-------------------|--12---|
|----------|12---14^(15)\|14^(15)-14^(15)\---|-------|
|----------|-----14^(16)\|14^(16)-14^(16)\-12|-------|
|----------|-------------|-------------------|14-----|
|----------|-------------|-------------------|-------|
|----------|-------------|-------------------|-------|

[6/8]
|Cbmaj7               |                 |Abm7        |               |
|[acoustic 2]                                                        |
|2------2----1----1---|2----2----1---1--|4--4--4--4--|4---4---4---4--|
|4------4----4----4---|4----4----4---4--|4--4--4--4--|4---4---4---4--|
|3------3----3----3---|3----3----3---3--|1--1--1--1--|1---1---1---1--|
|4------4----4----4---|4----4----4---4--|1--1--1--1--|1---1---1---1--|
|---------------------|-----------------|------------|---------------|
|---------------------|-----------------|4--4--4--4--|4---4---4---4--|
|[ld gtr 3]                                                          |
|---------------------|-----------------|------------|---------------|
|5--------------------|-----------------|------------|---------------|
|------------7--------|5---------4------|------------|------------2-2|
|---------------------|-----------------|5/7---5-----|4-----2-----2-2|
|---------------------|-----------------|------------|------------0-0|
|---------------------|-----------------|------------|---------------|
|[ld gtr 4]                                                     [out]|
|---------------17^-15|----17^-17-15-17^|15----15--17|---17--17------|
|--15h17-17-17--------|17---------------|--17--------|---------17\---|
|---------------------|-----------------|------------|---------------|
|---------------------|-----------------|------------|---------------|
|---------------------|-----------------|------------|---------------|
|---------------------|-----------------|------------|---------------|

[loose time]
|Abm7                   |                     |                      |
|[lead gtr 3]                                                        |
|-----------------------|---------------------|-----------12-12-15-15|
|-----------------------|---------------------|---------12-----------|
|2--------------------7-|----12-14-14^(16)\/\/|^(14)12\--------------|
|2------------5---7/9---|9/14-----------------|----------------------|
|0-----0---5/7----------|---------------------|----------------------|
|-----------------------|---------------------|----------------------|
                                        [vibrato bar]

|[lead gtr 3]                              |
|15h17-15h17-15/17-17/19-19/19/19/19/19/19-|
|------------------------------------------|
|------------------------------------------|
|------------------------------------------|
|------------------------------------------|
|------------------------------------------|

|[lead gtr 3]                              
|                                       |
|17h19-17h19-17h19-17h19-17h19-17h19-19-|------------------|
|---------------------------------------|------------------|
|---------------------------------------|------------------|
|---------------------------------------|------------------|
|---------------------------------------|------------------|
|---------------------------------------|xxxxxxxxxxxxxxx---|
                                        [pick slide]

|Ebm                                        |
|[ld gtr 3]
|0----------------------0-0-0---------------|
|0----------------------0-0-0---------------|
|4-----------0h1-0h1-0h1--------------------|
|2-2-2-2-----2---2---2----------------------|
|2-2-2-2-----2---2---2----------------------|
|0-0-0-0-----0---0---0----------------------|
|                                           |
|[horn synth]                               |
|-------------------------------------------|
|-17----15----------------------------------|
|--------------14-----11-----------------9--|
|-------------------------------------------|
|-------------------------------------------|
|-------------------------------------------|


================================================================================
#----------------------------------PLEASE NOTE---------------------------------#
#This file is the author's own work and represents their interpretation of the #
#song. You may only use this file for private study, scholarship, or research. #
#------------------------------------------------------------------------------#

Cut My Hair 
By The Who, Written by Pete Townshend, 1973 
©1973 Fabulous Music Ltd.

==============
transcribed by
litgo@aol.com               rev 06-21-2001
==============

Capo on 3rd fret for piano arr as gtr (and stage versions)
No capo for electric leads as on record
Note: all leads are approximate.

Chords (shape with capo)
Fmaj7/G            3 8 10 9 x x 
G7                 3 8 9 7 3 3 
Em/G               3 7 9 7 3 3
Am/G               3 7 7 5 3 3
G11                3 5 7 5 3 3
C                  x 3 5 5 5 x

G (E5)             355xxx or 3557xx
G6 (E6)            375xxx
F (D)              xx356x or xx3565
C (A)              x3555x or x35557
Eb (C)             365343
Bb (G)             6x3366
Gm7                353363 or 3x3333
Am7                575585 or 5x5555
E7                 x7675x


[intro]

|Fmaj7  G7                |Em/G       Am/G                |
|---------7-8-10---7h8-10-|7h8p7--------------------------|
|8------------------------|------8------5-6-8-------------|
|-------------------------|-------------------5-7^-7^\----|
|-------------------------|-------------------------------|
|-------------------------|-------------------------------|
|-------------------------|-------------------------------|

|G11     G         |C                   |
|------------------|--------------------|
|-----------8-10^\8|10-8---8------------|
|(7)---------------|-----9--------------|
|------------------|--------------------|
|------------------|--------------------|
|------------------|--------------------|

|Fmaj7             G7               |Em/G      |Am/G   
      Why should I care if I have to     cut my hair?

        |G11           G            |C             |
I got to move with the fashion or be outcast.

|Fmaj7                G7              |Em/G              Am/G   
      I know I should fight but my old man, he's really alright,
|-------------------------------------|-------------------------
|<13-----------------<15--------------|<17---------------<20----
|-------------------------------------|-------------------------
|-------------------------------------|-------------------------
|-------------------------------------|-------------------------
|-------------------------------------|-------------------------

       |G11             G                        |C             |
And I'm still living at home even though it won't last
       |-----------------------------------------|--------------|
       |----------------<8--------<10------------|<8------------|
       |-----------------------------------------|--------------|
       |-----------------------------------------|--------------|
       |-----------------------------------------|--------------|
       |-----------------------------------------|--------------|

[chorus]

|Bb   C          |Bb    C               |Bb   F  Bb  C           |
 Zoot suit, white jacket with side vents five inches long    (I'm)
|15---15-15-15---|15----15----15---15---|15---15-15--15---15-15--|
|13---13-13-13---|13----13----13---13---|13---13-13--13---13-13--|
|----------------|----------------------|------------------------|
|----------------|----------------------|------------------------|
|----------------|----------------------|------------------------|
|----------------|----------------------|------------------------|

   |Bb  C        |Bb      C             |Bb F  Bb G           |
I'm out on    the street again and I'm leaping a--long.   
   |15--15-15-15-|15------15--15---15---|15-15-15-15---15-15--|
   |13--13-13-13-|13------13--13---13---|13-13-13-15---15-15--|
   |-------------|----------------------|---------------------|
   |-------------|----------------------|---------------------|
   |-------------|----------------------|---------------------|
   |-------------|----------------------|---------------------|

|F       G          |F     G           |F    C     F  G7            |
 Dressed right for a beach fight, but I just can't explain  why that
|15------15-15-15---|15----15--15-15---|15---15----15-15-15-15--15--|
|15------15-15-15---|15----15--15-15---|15---15----15-15-15-15--15--|
|-------------------|------------------|----------------------------|
|-------------------|------------------|----------------------------|
|-------------------|------------------|----------------------------|
|-------------------|------------------|----------------------------|

                            [2/4 meas.]
|F          Eb              |Bb        |
 Un-certain feeling is still here in my (brain)
|17-17-15---15------13------|13------13|
|--------18------------16---|-----16---|
|---------------------------|----------|
|---------------------------|----------|
|---------------------------|----------|
|---------------------------|----------|

|Fmaj7  G7     |Em/G  Am/G    |G11  G        |C           |          |
 brain                         
|15-------19-20|---------19-20|--------------|------------|----------|
|--------------|20------------|20--<18--17-15|17---<13-<8-|<5-<1-0h1-|
|--------------|--------------|--------------|------------|----------|
|--------------|--------------|--------------|------------|----------|
|--------------|--------------|--------------|------------|----------|
|--------------|--------------|--------------|------------|----------|

[second verse]
|Fmaj7           G7                      |Em/G       Am/G              |
     The kids at school have parents that    seem so cool  and though I 
|----------------------------------------|-----------------------------|
|----------------------------------------|-----------------------------|
|----------------<7----------------------|<7---------<5----------------|
|<8--------------<9----------------------|<9---------<7----------------|
|----------------------------------------|-----------------------------|
|----------------------------------------|-----------------------------|

|G11           G                    |C                   |
 Don't want to hurt 'em mine want me their way
|-----------------------------------|--------------------|
|-----------------------------------|--------------------|
|<5------------<4-------------------|----------7p5-5-----|
|<7------------<5-------------------|--------------------|
|-----------------------------------|--------------------|
|-----------------------------------|--------------------|

|Fmaj7                      G7             |
     I clean my room and my shoes    but my 
|------------------------------------------|
|<8-------------------------8h10p8---10h12p|
|------------------------------------------|
|------------------------------------------|
|------------------------------------------|
|------------------------------------------|

|Em/G                  Am/G             |
 Mother found a box of blues   and there
|---------------------------------------|
|10---\8-----------------------8--10----|
|--------5------------------------------|
|---------------------------------------|
|---------------------------------------|
|---------------------------------------|

|G11               G                     |C          |
 Doesn't seem much hope   they'll let me stay.
|------------------8----10-12-13-12h13/13|-----------|
|-10^\-8---8-----------------------------|12---------|
|--------7-------------------------------|--12-------|
|----------------------------------------|-----------|
|----------------------------------------|-----------|
|----------------------------------------|-----------|

[repeat chorus]
Zoot suit, white jacket with side vents five inches long 
I'm out on the street again and I'm leaping along.
Dressed right for a beach fight, but I just can't explain why that
Uncertain feeling is still here in my brain

| Fmaj7 G7     |Em/G  Am/G           |
 (brain)
|<15>-----19-20|------15-13p12-13--15|
|--------------|20-------------------|
|--------------|---------------------|
|--------------|---------------------|
|--------------|---------------------|
|--------------|---------------------|

|G11          G           |C   |     |
|15--------12-13----------|----|-----|
|---13h15---------15h17-15|13--|-----|
|-------------------------|----|-----|
|-------------------------|----|-----|
|-------------------------|----|-----|
|-------------------------|----|-----|

|C                   G                
 Why do I have to be different to them 
       |Gm7                   F                |
Just to earn the respect of a dance hall friend
|G                      Gsus4            |G             G7     |
   We have the same old row,   again and again.
|----------------------------------------|-------<12>~---------|
|0~---------------------1p0--------------|-------<12>~-<12>~---|
|0~------------1p0~----0----1p0----------|-------------<12>~---|
|0~--------------------------------------|-------------<12>~---|
|----------------------------------------|---------------------|
|----------------------------------------|---------------------|
                                                  harmonics

|D                A                 
 Why do I have to move with a crowd

  |Am7                     G         
Of kids that hardly notice I'm around,

 |A              D/A              |A     
I work myself to death just to fit in
 |--------------------------------|-----------------|
 |-------5------------------------|-----------------|
 |2--------2-----5p2---2----------|-----------------|
 |2--------2-----------2----------|2~---------------|
 |--------------------------------|0~---------------|
 |--------------------------------|-------********--|
                                         [pick slide]

|Fmaj7/G         G7                   |
      I'm coming down, got home on the 
[synth arr for gtr]
|-------------------------------------|
|---17----17--------15------15--------|
|-----17----17--------16------16------|
|-------16----15--------15------15----|
|(12)---------------------------------|
|-------------------------------------|

|Em/G                  Am/G  
 very first train from town
|-------------------------------------|
|--15----15--------------13----13-----|
|----16----16--------------14----14---|
|------14----14--------------14----14-|
|-------------------------------------|
|-------------------------------------|

  |G11               E7             |Am                          |
My dad just left for work, he wasn't talking.                    
  |---------------------------------|----------------------------|
  |---13----13---------12----12-----|--13----13-----13----13-----|
  |-----14----14---------13----13---|----14----14-----14----14---|
  |-------12----12---------12----12-|------14----14-----14----14-|
  |---------------------------------|----------------------------|
  |---------------------------------|----------------------------|

|Fmaj7/G         G7           |Em/G                Am/G            |
      It's all a game,   and inside I'm just the same,               
|-----------------------------|------------------------------------|
|---17----17------15----15----|--15----15-------------13----13-----|
|-----17----17------16----16--|----16----16-------------14----14---|
|-------16----15------15----15|------14----14-------------14----14-|
|(12)-------------------------|------------------------------------|
|-----------------------------|------------------------------------|
|                             |                                    |
|-----------------------------|------------------------------------|
|5/6/5-----------5------------|5-----------------------------------|
|-----------------------------|------------------------------------|
|-----------------------------|------------------------------------|
|-----------------------------|------------------------------------|
|-----------------------------|------------------------------------|

  |G11                E7                     |Am        |
My fried egg makes me sick first thing in the morning   |
  |------------------------------------------|----------|
  |---13----13----------12----12-------------|----------|
  |-----14----14----------13----13-----------|14--------|
  |-------12----12----------12----12---------|14--------|
  |------------------------------------------|----------|
  |------------------------------------------|----------|
  |                                          |          |
  |------------------------------------------|----------|
  |------------------------------------------|1---------|
  |------------------------------------------|2---------|
  |------------------------------------------|2---------|
  |------------------------------------------|0---------|
  |------------------------------------------|----------|


================================================================================
#----------------------------------PLEASE NOTE---------------------------------#
#This file is the author's own work and represents their interpretation of the #
#song. You may only use this file for private study, scholarship, or research. #
#------------------------------------------------------------------------------#

The Punk Meets the Godfather
By The Who, Written by Pete Townshend, 1973 
©1973 Fabulous Music Ltd.

==============
transcribed by
litgo@aol.com                  04-03-1999
==============

Note: /A implied by bass

A5       x02255        G/C      x30033
Dsus2/A  x00230        G/B      x20033
Fmaj7/A  133210        G/D      xx0433
G        3x0033        D7       xx0535
G5/D     xx0033        E6       042200
F        1(t)33211     A/C#     x42220
Esus4    022200        E7       050430


[intro]

||:A5   |Dsus2/A |Fmaj7/A   G |G  A5ii  (G^):||x2

|A5                         |Dsus2/A             
   You declared you would be three inches taller 
   |Fmaj7/A G5/D        |G    A5  |
You only  became what we made you
|A5                        |Dsus2/A        
 Thought you were chasing a destiny calling
   |Fmaj7/A G5/D          |G    A5 |
You only    earned what we gave you

|D                          |G/D                   |
   You fell and cried as our people were starving 
|D7                  |G/D         |
 Now you know that we blame you
|A5                        |Dsus2/A               
   You tried to walk on the trail we were carving 
|Fmaj7/A G5/D        |G      A5   |
 Now you know that we framed you

[chorus]
|D                   |Dsus4                   |G/C   
   I'm the guy in the sky flying high flashing eyes
                  |G/B                     |E  E    |Esus4       |(E) 
No surprise I told lies I'm the punk in the gutter                    
                                                    |--7---------|-0--
                                                    |7^-\7-5\-2--|----
                                                    |------------|----
                                       [fill, 2nd   |------------|----
                                       chorus only] |------------|----
                                                    |------------|----

|E                 |E6                   |E7
   I'm the new president and I grew and I bent
                        |A/C#                       |E        |    |
Don't you know? Don't it show? I'm the punk with the stutter

[break]
|| D  D2 D   D2 D           D  D2 D   D2 D     ||x2
   My my my my my   G-g-g-g gener-a---tion      
||-2--0--2-|-0--2----------|2--0--2-|-0--2-----||
||--3--3--3|--3--3---------|-3--3--3|--3--3----||
||.--2--2--|2--2--2--------|--2--2--|2--2--2--.||
||.--------|-------0-------|--------|-------0-.||
||---------|---------------|--------|----------||
||---------|---------------|--------|----------||

[repeat intro]

We tried to speak between lines of oration
You could only repeat what we told you
Your axe belongs to a dying nation
They don't know that we own you
You're watching movies trying to find the feelers
You only see what we show you
We're the slaves of the phony leaders
Breathe the air we have blown you

[repeat chorus]
I'm the guy in the sky, flying high, flashing eyes
No surprise I told lies, I'm the punk in the gutter
I'm the new president and I grew and I bent
Don't you know? Don't it show? I'm the punk with the stutter

[repeat break]
My my my my G-g-g-g generation, My my my my G-g-g-g generation

|Dsus2         |Dsus2   D     |G/C               |G/C            |G/B
   I have to be careful not to preach, I can't pretend that I can teach
         |G/B              |Asus4          |A                   |
And yet I lived your future out by pounding stages like a clown
|Dsus2       |Dsus2       D     |G/C              |G/C         |G/B 
   And on the dance floor broken glass, and bloody faces slowly pass
            |G/B           |Asus4         |Asus4           |A    |A   |
The numbered seats in empty rows, it all belongs to me, you know

[repeat intro; first verse, chorus and break]


================================================================================
#----------------------------------PLEASE NOTE---------------------------------#
#This file is the author's own work and represents their interpretation of the #
#song. You may only use this file for private study, scholarship, or research. #
#------------------------------------------------------------------------------#

I'm One (at least)
By The Who, Written by Pete Townshend, 1973 
©1973 Fabulous Music Ltd.

Previous finger-picking transcription by Derek Dial, ddial@itsa.ucsf.edu
=============
Revised by
litgo@aol.com                    04-03-1999
=============

Note: all leads and picking patterns are approximate.

G           3x0003
D7sus4/G    3x0213
G(add5)     3x003x
Fmaj7       (1t)33210
D9          xx0210
Dm7         xx0211
Dsus2/C     x30230
G6/B        x20030
Dsus2/F#    2(t)x0230 (use thumb)
Dsus2       xx0230 or x(0)4230


[intro and verse pattern]
[acoustic]
|G       D7sus4/G|G(add5)  D7sus4/G|G       D7sus4/G|G(add5)  D7sus4/G|
|--3-------------|-----------------|--3-------------|-----------------|
|--0----0/1--1---|--3-----0/1--1---|--0----0/1--1---|--3-----0/1--1---|
|----0-----2--2--|----0------2--2--|----0-----2--2--|----0------2--2--|
|--0---0----0----|--0---0-----0----|--0---0----0----|--0---0-----0----|
|----------------|-----------------|----------------|-----------------|
|3---3---3---3---|3---3----3---3---|3---3---3---3---|3---3----3---3---|
|[electric]                                                           |
|<3-----------<5-|<7---------------|<10-------------|<19--------------|
|----------------|-----------------|----------------|-----------------|
|----------------|-----------------|----------------|-----------------|
|----------------|-----------------|----------------|-----------------|
|----------------|-----------------|----------------|-----------------|
|----------------|-----------------|----------------|-----------------|

     |G           D7sus4/G   |G(add5)  D7sus4/G  |
Every year is the same, and I feel it again
     |G     D7sus4/G     |G(add5)  D7sus4/G  |
I'm a loser, no chance to win
|G               D7sus4/G|G(add5)         D7sus4/G  |
    Leaves start falling,    come down is calling
|G          D7sus4/G      |G(add5)  D7sus4/G    |
 Loneliness starts sinking in           (But I'm)

[chorus]
       |D       D9       |Dm7     D9       |
But I'm one                            I'm 
       |--2-----0-----0--|--1-----0-----0--|
       |----3-----1------|----1-----1------|
       |--2---2------2---|--2---2------2---|
       |0---0---0---0----|0---0---0---0----|
       |-----------------|-----------------|
       |-----------------|-----------------|
       |                                   |
       |---2-------------|-----------------|
       |-----3-----------|-----------------|
       |-----------------|-----------------|
       |-----------------|--------------0/2|
       |-----------------|------------0----|
       |-----------------|-----------------|
[note: stage versions: 
       |D       Dsus2/C  |G6/B    Dsus2/C  |]

|D       D9       |Dm      D9      |Fmaj7          |Dsus2/F#        |
 One                            And I can see  that this is me   And 
|--2-----0-----0--|--1-----0-----0-|--0---0---0----|0-------0----0--|
|----3-----1------|----1-----1-----|----1---1---1--|-3-------3----3-|
|--2---2------2---|--2---2------2--|--2---2---2----|--2---2---2-----|
|0---0---0---0----|0---0---0---0---|3---3---3---3--|0---0---0---0---|
|-----------------|----------------|---------------|----------------|
|-----------------|----------------|---------------|--2---2---2-----|
|                 |                |               |                |
|--2/0------------|----------------|---------------|----------------|
|------3----------|----------------|<1-------------|<3--------------|
|-----------------|----------------|<2-------------|<2--------------|
|0----------------|----------------|<3-------------|<0--------------|
|-----------------|----------------|---------------|----------------|
|-----------------|----------------|---------------|----------------|

|Fmaj7          |Em          Dsus2/F#   |G      D7sus4/G|G         |
 I will be        you'll all see I'm the one
|--0--------0---|-----------------------|--3------------|3---------|
|----1---1---1--|--0-----------3--------|--0----0/1--1--|0---------|
|--2---2---2--2-|--------0---------2----|----0-----2--2-|0---------|
|3---3---3---3--|--2-----------0--------|--0---0----0---|0---------|
|---------------|----2------------------|---------------|----------|
|---------------|0-----0-----2---2------|3---3---3---3--|3---------|
|               |                       |               |          |
|---------------|-----------------------|---------------|3---------|
|<1-------------|<0----------<3---------|<0-------------|0---------|
|<2-------------|<0----------<2---------|<0-------------|-0--------|
|<3-------------|<2----------<4---------|<0-------------|-0--------|
|---------------|<2---------------------|---------------|----------|
|---------------|-----------------------|---------------|--3-----7\|
                                                         [rake down]
[acoustic rhythm pattern]
|G       D7sus4/G|G(add5) D7sus4/G|G       D7sus4/G|G(add5) D7sus4/G|
|--3-------3-3-3-|----------3-3-3-|--3-------3-3-3-|----------3-3-3-|
|--0--0-0--1-1-1-|--3-------1-1-1-|--0--0-0--1-1-1-|--3-------1-1-1-|
|--0--0-0--2-2-2-|--0--0-0--2-2-2-|--0--0-0--2-2-2-|--0--0-0--2-2-2-|
|--0--0-0--0-0-0-|--0--0-0--0-0-0-|--0--0-0--0-0-0-|--0--0-0--0-0-0-|
|----------------|----------------|----------------|----------------|
|3---3---3-3-3-3-|3---3---3-3-3-3-|3---3---3-3-3-3-|3---3---3-3-3-3-|
|[lead]                           |                                 |
|----------------|----------------|3---------------|----------------|
|----------------|-3~--3----------|------0-3-3-0-/8|8~\-------------|
|-0-----2^\0-2^2^|0-----4\0-2^^2^0|------0-2^2^0-/7|7~\--0----------|
|-0--------------|----------------|----------------|-----0----------|
|----------------|----------------|----------------|----------------|
|3---------------|----------------|----------------|----------------|

|G             D7sus4/G  |G(add5)     D7sus4/G  |
  Where do you get  those blue blue jeans
|---3--------------------|-----3----------------|
|----------------3-3-----|-------0-----3-3------|
|----------------4-4-----|-------0-----4-4------|
|------------------------|----------------------|
|------------------------|----------------------|
|3-----------------------|3---------------------|

|G             D7sus4/G |G(add5) D7sus4/G|
 Faded patched secret so tight
|---3-------------------|----------------|----
|----------------3-3----|-----0----------|----
|----------------4-4----|-----0--2^\0-2^-|-0~-
|----------------------0|0---------------|----
|-----------------------|----------------|----
|3----------------------|----------------|----

|G            D7sus4/G|G(add5)    D7sus4/G        |
  Where do you get that walk oh so lean
|---------------------|------------------7-10--7\-|
|---------------/8\---|-0--------------/8-----8---|
|---------------------|-0-------------------------|
|---------------------|-0-------------------------|
|---------------------|---------------------------|
|---------------------|---------------------------|

|G                    D7sus4/G     |G(add5)     D7sus4/G G   G  |
  Your shoes and your shirt all just right                   I'm
|3---------------------------------|------------3---------------|
|3---------------------------------|-----8-8-8\-3---------------|
|----------------------------------|-----7-7-7\---4/0-2^-0------|
|----------------------------------|----------------------------|
|----------------------------------|----------------------------|
|----------------------------------|----------------------------|

|D  D  Dsus2/C |F F     C C |D  D  Dsus2/C |F F     C C   |
 One                     I'm one                       and 
|--------------|------------|--------------|--------------|
|3--3------3---|1-1-----1-1-|3--3----3----1|1-1-----1-1---|
|2--2----2-2---|2-2-----0-0-|2--2----2----2|2-2-x-x-0-0---|
|0--0------0---|3-3-----2-2-|0--0---------3|3-3-x-x-2-2---|
|------3-------|3-3-----3-3-|------3-------|3-3-x-x-3-3---|
|--------------|------------|--------------|--------------|

|Fmaj7 Fmaj7*  |Dsus2*  Dsus2~|Fmaj7 Fmaj7*|Em           Dsus2/F#    
 I can see that this is me and I will be      you'll all see I'm the 
|0-----0-------|0-------0-----|0------0----|-------------0----------|
|1-----1-------|3-------3-----|1------1----|0------------3----------|
|2-----2-------|2-------2-----|2------2----|0------------2----------|
|3-----3-------|0-------0-----|3------3----|2------------0----------|
|3-----3-------|--------------|3------3----|2-----------------------|
|1T------------|2-------2-----|1T-----1T---|0------------2----------|
       *Cbass   *F#bass ~D bass       *Cbass

|G         D7sus4/G  |G         D7sus4/G|G    
 One
|--3---------3-3-3---|--3---------3-3-3-|3----
|--0---0-0--/1-1-1---|--0---0-0--/1-1-1-|0----
|--0---0-0--/2-2-2---|--0---0-0--/2-2-2-|0----
|--0---0-0---0-0-0---|--0---0-0---0-0-0-|0----
|--------------------|------------------|-----
|3---3-----3-3-3-3---|3---3-----3-3-3-3-|3----
|                    |                  |     
|--------------------|------------------|-----
|--8\----------------|------------------|0----
|----0---4/2/0-2-0-2-|2^\-^\-^\-----2/0-|0----
|----0---------------|------------------|0----
|--------------------|------------------|-----
|--------------------|------------------|3----

[repeat first verse pattern]
I got a Gibson without a case
But I can't get that even tanned look on my face
Ill-fitting clothes and I blend in the crowd
Fingers so clumsy, voice too loud, but I'm 

|D  D  Dsus2/C |F F   C C |D  D  Dsus2/C |F F     C C |
 One                   I'm one                     and 
|--------------|----------|--------------|------------|
|---3----------|----------|--------------|------------|
|---2----------|----------|--------------|------------|
|---0---x-x--0-|----------|0------0--0-0-|---x-x------|
|-------x-x--0-|3-----3-3-|---------3----|---x-x-3-3--|
|--------------|1---------|--------------|1-1---------|

|Fmaj7 Fmaj7   |Dsus2   Dsus2 |Fmaj7 Fmaj7|Em           Dsus2/F#    
 I can see that this is me and I will be     you'll all see I'm the 
|0-----0-------|0-------0-----|0------0---|-------------0----------|
|1-----1-------|3-------3-----|1------1---|0------------3----------|
|2-----2-------|2-------2-----|2------2---|0------------2----------|
|3-----3-------|0-------0-----|3------3---|2------------0----------|
|3-------------|--------------|3------3---|2-----------------------|
|1T------------|--------------|1T-----1T--|0------------2----------|

|G         D7sus4/G  |G         D7sus4/G  |G             D7sus4/G  |
 One          I'm the one          I'm the one                      
|-------------3------|3-------------------|-----3-3-3-3------------|
|0------------1------|0-----------3-------|-------3-3-3--1-0---0-3-|
|0------------2------|0--------2/4--4/2/0-|--2/4---------2~0-/4----|
|0------------0------|0-------------------|------------------------|
|--------------------|--------------------|------------------------|
|3-------------------|3-------------------|------------------------|

|G     D7sus4/G|G      
|--------------|-------
|--3-5---------|-------
|/4-------0--2^|0------
|------0-------|-------
|--------------|-------
|--------------|-------


================================================================================
#----------------------------------PLEASE NOTE---------------------------------#
#This file is the author's own work and represents their interpretation of the #
#song. You may only use this file for private study, scholarship, or research. #
#------------------------------------------------------------------------------#

The Dirty Jobs
By The Who, Written by Pete Townshend, 1973 
©1973 Fabulous Music Ltd.

==============
transcribed by
litgo@aol.com                    04-03-1999
==============

Capo on 3 

Chords (voicings with capo)
C (A)             x35588         Bb5            (6)x3366
G/C               xx9787         Bbmaj7         (6)x3365
Fadd9/C (Dadd9/A) x37563         Bb6            (6)x3363
Bb (G)            6x3366         Gm (Em)         366333
F                 xx3565         Eb              x65343
Bb/F              xx3366

Note: all leads are approximate.

[intro]

||:C    G/C      |Fadd9/C G/C :||
[horn arranged for guitar]
||-8-------------|-------------||
||---------------|8------------||
||.-----5-7-9-10-|------------.||
||.--------------|------------.||
||---------------|-------------||
||---------------|-------------||

[verse]
|C        G/C          |Fadd9/C   G/C  |
   I am a man who looks after the pigs
|C           G/C       |Fadd9/C  G/C   |
   Usually I get along okay
|C        G/C      |Fadd9/C      G/C   |
   I am a man who reveals all he digs
|C                G/C            |Fadd9/C G/C 
   Should be more careful, what I say

[chorus]
           |C   F    Bb/F Bb/F F            |C      F     Bb/F Bb/F F |
I'm getting put down             I'm getting pushed 'round

|Dm          C           |Bb5 Bbmaj7 Bb6 Bbmaj7 Bb5 |
   I'm being beaten every day
                         |6-6-5-5----3--3-5-3--6-6--|
                         |6-6-6-6----6--6-6-6--6-6--|
                         |3-3-3-3----3--3-3-3--3-3--|
                         |3-3-3-3----3--3-3-3--3-3--|
                         |--------------------------|
                         |--------------------------|

         |C F    Bb/F Bb/F F                |C    F    Bb/F Bb/F F |
My life's fading              but things are changing

|Dm              C          ||:Bb5 Bbmaj7 Bb6 Bbmaj7 Bb5 :||2
   I'm not gonna sit and weep again
                            ||-6-6-5-5----3--3-5-3--6-6---||
                            ||-6-6-6-6----6--6-6-6--6-6---||
                            ||.3-3-3-3----3--3-3-3--3-3--.||
                            ||.3-3-3-3----3--3-3-3--3-3--.||
                            ||----------------------------||
                            ||----------------------------||

[repeat verse]
I am a man who drives the local bus
I take miners to work but the pit's all closed today
It's easy to see that you are one of us
Ain't it funny how we all seem to look the same

[repeat chorus]
I'm getting put down
I'm getting pushed 'round
I'm being beaten every day
My life's fading but things are changing
I'm not gonna sit and weep again

[bridge]
|F                C      |Bb             F            |
        My Karma tells me    you've been screwed again
|------------------------|----------------------------|
|10/11-11-11/10-/13------|15/16-16-16/15-18-----------|
|10/12-12-12/10-/12------|15/17-17-17/15-17-----------|
|------------------------|----------------------------|
|------------------------|----------------------------|
|------------------------|----------------------------|

|Gm                 F                 |Eb              Bb  (Bbxv)
    If you let them do it to ya you've got yourself to blame
|-------------------------------------|14--13--11---13-10--6----|
|15/18-18--18/15----13----------------|15--13--11---13-11--6----|
|15/17-17--17/15----14----------------|-------------------------|
|-------------------------------------|-------------------------|
|-------------------------------------|-------------------------|
|-------------------------------------|-------------------------|

|Bb (Bbxv)...                        |
               It's you who feels the 
|10-6-10-6-10-6-----10------6--------|
|11-6-11-6-11-6-----11------6--------|
|------------------------------------|
|------------------------------------|
|------------------------------------|
|------------------------------------|

|F   F(xiiv)....                       |C    [repeat intro]
 pain            It's you who takes the shame
|8--5--8--5-8--13-----8-------5--------|
|10-6--10-6-10-13-----10------6--------|
|--------------------------------------|
|--------------------------------------|
|--------------------------------------|
|--------------------------------------|

[repeat verse]
I am a young man, I ain't done very much
You men should remember how you used to fight
Just like a child, I've been seeing only dreams
I'm all mixed up but I know what's right

[repeat chorus]
I'm being put down (I'm being put down)
I'm getting pushed 'round (I'm getting pushed 'round)
I'm being beaten every day
My life's fading but things are changing
I'm not gonna sit and weep again
I'm not gonna weep again

[repeat intro and fade]


================================================================================
#----------------------------------PLEASE NOTE---------------------------------#
#This file is the author's own work and represents their interpretation of the #
#song. You may only use this file for private study, scholarship, or research. #
#------------------------------------------------------------------------------#

Helpless Dancer
By The Who, Written by Pete Townshend, 1973 
©1973 Fabulous Music Ltd.

==============
transcribed by
litgo@aol.com                04-03-1999
==============

acoustic voicings:     piano arr for gtr:
E      022400          E5       07xxxx
Asus2  x02200          E/D      05xxxx
D      x00232          Asus2    002xxx
Am     x02210          E        0799xx
                       Am       5775xx
                       D        x577xx
                       C        032xxx

[intro; horn and piano arr for gtr]
|E5       |         |    |E/D |    |         |    |
|----|----|---------|7---|----|----|---------|7---|
|----|----|9-7-9-10-|----|----|----|9-7-9-10-|----|
|----|----|---------|----|----|----|---------|----|
|----|----|---------|----|----|----|---------|----|
|----|----|---------|----|----|----|---------|----|
|----|----|---------|----|----|----|---------|----|

           [acoustic gtr in]             
|Asus2|    |         |    |E5  |E5  |E5  |E5  |
|-----|----|---------|7---|----|----|----|----|
|-----|----|9-7-9-10-|----|----|----|----|----|
|-----|----|---------|----|----|----|----|----|
|-----|----|---------|----|----|----|----|----|
|-----|----|---------|----|----|----|----|----|
|-----|----|---------|----|----|----|----|----|

[acoustic
out]
|E      E     |E       E       |

|E             E               |Am               D              |E    
 When a man is running from his boss who holds a gun that fires "cost"
           E             |Am           D                   |E     
And people die from being old or left alone because they're cold
              E                  |
And bombs are dropped on fighting 
Am                 |D                  |E
cats and children's dreams are run with rats
          E             |Am                 D           |(E)
If you complain you disappear just like the lesbians and queers

|E    E   |Am  D |E    E  |Am  D  (E)|

[acoustic in]
|E        E   E        E   E  |Am            Am D              |E
   No one can love without the grace of some unseen and distant face
        E   E      E  E |Am                Am   D                 |E
And you get beaten up by blacks who though they work still got the sack
         E    E          E   E |Am          Am D              E|E
And when your soul tells you to hide your very right to die's denied
       E   E      E  E  |Am                Am D          E|E
And in the battle on the streets you fight computers and receipts
         E E      E      E |Am          Am D         E   |E
And when a man is trying to change it only causes further pain
                                                 [acoustic out]
    E  E         E  E|Am       Am    D       D  |D      |       |
You realize that all along something in us going wrong

[outro; piano & horn pattern arr for gtr]
|E5  |    |         |    |E/D      |    |    |    |
|----|----|---------|7---|---------|7---|----|----|
|----|----|9-7-9-10-|----|9-7-9-10-|----|----|----|
|----|----|---------|----|---------|----|----|----|
|----|----|---------|----|---------|----|----|----|
|----|----|---------|----|---------|----|----|----|
|----|----|---------|----|---------|----|----|----|

|C        |    |C   |          |    |
|---------|7---|----|----------|7---|
|8-7-9-10-|----|----|-8-7-9-10-|----|
|---------|----|----|----------|----|
|---------|----|----|----------|----|
|---------|----|----|----------|----|
|---------|----|----|----------|----|

[acoustic in]
|Asus2|    |         |Asus2        |E
                           You stop dancing
|-----|----|---------|7------------|----------
|-----|----|8-7-9-10-|-------------|----------
|-----|----|---------|-------------|----------
|-----|----|---------|-------------|----------
|-----|----|---------|-------------|----------
|-----|----|---------|-------------|----------


================================================================================
#----------------------------------PLEASE NOTE---------------------------------#
#This file is the author's own work and represents their interpretation of the #
#song. You may only use this file for private study, scholarship, or research. #
#------------------------------------------------------------------------------#

Is It In My Head?
By The Who, Written by Pete Townshend, 1972 
©1972 Fabulous Music Ltd.

==============
transcribed by
litgo@aol.com                  04-03-1999
==============

Note: acoustic tacit in chorus; I have supplied 'optional' voicings for 
one-guitar arrangements.
Note 2: All leads are approximate.

Chord   Gtr 1 (electric)      Gtr 2 (acoustic; capo on 5)
G       3x0003 (optional)     xx5787
C/G     3x2013 (optional)    (8)x5588
F       (1)3321x              x87565
C       x3201x                8x5588
D       xx0232                x577 10 10  (optional)
A       x022xx and x02255     577955 and 577655 (optional)
Bb/C    x3333x and x33366     6x8768 (optional)
D(x)    xxx 11 10 10          -
D(xiv)  xxx 14 15 14          -
A(ix)   xxx 9 10 9            -
A(xii)  xxx 14 14 12          -

< = volume swell    () = harmonic  ~ = vibrato 


[intro]
|G   C/G    |G    C/G       |G   
|-----------|---------------|----
|-----------|----------(12)-|<15-
|-----------|-------(12)----|----
|-----------|----(12)-------|----
|-----------|---------------|----
|-----------|---------------|----
                 harm.       vol. swell

|G         C/G          |G          C/G   |
   I see a man without a problem
|G         C/G           |F         C     |
   I see a country always starved
|------------------------|----------------|
|------------------------|1---------1-----|
|------------------------|2---------0-----|
|------------------------|3---------2-----|
|------------------------|3---------3-----|
|------------------------|---------------3|

|G            C/G       |G          C/G   |
   I hear the music of a heartbeat
|3----------------------|-----------------|
|3----------------------|-----------------|
|0----------------------|-------------(12)|
|0----------------------|-----------(12)--|
|-----------------------|-----------------|
|3----------------------|-----------------|

|G                C/G            |F     C |
   I walk and the people turn and laugh
|--------------------------------|--------|
|--------------------------------|1-----1-|
|--------------------------------|2-----0-|
|(12)----------------------------|3-----2-|
|--------------------------------|3-----3-|
|--------------------------------|--------|

[chorus; acoustic tacit]
|D                   D(x) |D                 D(xiv)
   Is it in my head?         Is it in my head?     
|--------------------10~--|2-----------------14~--|
|3-------------------10~--|3-----------------15~--|
|2-------------------11~--|2-----------------14~--|
|0------------------------|0----------------------|
|-------------------------|-----------------------|
|-------------------------|-----------------------|

|D                             |A                          G   D |
   Is it in my head here at the start?
|--------2---------------------|-------5-------------------------|
|--------3---------------------|-------5-------------------------|
|2-------2---------------------|2------2--4^(6)\2-0------2-------|
|0-------0---------------------|2------2-------------------------|
|---------------------------3/-|0-------------------0/3/4--0/3/4-|
|------------------------------|---------------------------------|

|A                   A(xii) |A                    A(ix) |
   Is it in my head?           Is it in my head?
|5-------------------12~----|--------5------------9-----|
|5-------------------14~----|--------5------------10----|
|2-------2-----------14~----|--------2------------9-----|
|2-------2------------------|2--------------------------|
|--------0------------------|0--------------------------|
|---------------------------|---------------------------|

|A                          |C     Bb/C |C  Bb/C|C    Bb/C   |Bb/C   |
   Is it in my head or in my heart?
|---------------------------|-----------|-------|-----6------|-6-----|
|---------------------------|------6----|---6---|-5---6------|-6-----|
|2-------2------------------|5-----3----|5--3---|--5--3--3-3-|3------|
|2-----2-2------------------|5-----3----|5--3---|---5-3---3-3|3------|
|0-----0-0------------------|3-----3----|3--3---|3-----------|-------|
|---------------------------|-----------|-------|------------|-------|

[repeat verse; acoustic in]
|G           C/G               |G          C/G     |
   I pick up phones and hear my history
|------------------------------|---------------<13-|
|------------------------------|--------<13-<15----|
|------------------------------|-------------------|
|------------------------------|-------------------|
|------------------------------|-------------------|
|------------------------------|-------------------|

|G             C/G            |F      C     |
    I dream of all the calls I miss
|<15--------------------------|-------------|
|-----------------------------|1------1-----|
|-----------------------------|2------0----0|
|-----------------------------|3------2----0|
|-----------------------------|3------3-----|
|-----------------------------|------------3|

|G           C/G             |G             C/G    |
    I try to number those who love me
|----------------------------|---------------------|
|----------------------------|---------------------|
|0---------------------------|---------<(12)----(7)|
|0---------------------------|---------------(7)---|
|----------------------------|---------------------|
|3---------------------------|---------------------|

|G           C/G                    |F      C     |
   And find exactly what the trouble is
|-----------------------------------|-------------|
|-----------------------------------|1------1-----|
|-----------------------------------|2------0-----|
|-----------------------------------|3------2-----|
|-----------------------------------|3------3-----|
|-----------------------------------|-------------|

[repeat chorus; acoustic out]
Is it in my head?
Is it in my head?
Is it in my head here at the start?
                            |-----5----9~-9\-----|---
                            |--------------------|---
                            |2--/6--/9----9\-6\4/|2--
                            |--------------------|---
                            |--------------------|---
                            |--------------------|---
Is it in my head?
Is it in my head?
Is it in my head or in my heart?

|C   Bb/C     |C  Bb/C    |C         Bb/C           | Bb/C           |
(heart?)
|-------------|-----------|-----------------------8-|-8/10-10/12-----|
|-------------|---5---6-6-|6/8/6-8-8-8/10/8--8-10---|------------8~--|
|-------------|5----------|-------------------------|----------------|
|----5----5/5-|-----------|-------------------------|----------------|
|3------------|-----------|-------------------------|----------------|
|-------------|-----------|-------------------------|----------------|

[acoustic in]
|G       C/G               |G           C/G  |
|--------------------------|------------15~--|
|-------(12)---10-12-12/13/|12----12--15-----|
|-----(12)-----------------|----12-----------|
|---(12)-------------------|-----------------|
|--------------------------|-----------------|
|--------------------------|-----------------|
    harm.

[bridge; acoustic out]
|Bb           (Eb)  F               |Bb       (Eb)F           
   I feel I'm being followed           My head is empty      
|-----------------------------------|-------------------------------|
|-----------------------------10\8-6|--6--6----6----------10--10-10-|
|---------8---7---------------------|--7--7----7----------10--10-10-|
|8---8----------------------10------|8-8--8----8-------10-10--10-10-|
|-------------------8--8------------|--------------8----------------|
|-----------------------------------|-------------------------------|

   |C            F              |C
Yet every word I say turns out a sentence
---|8---8--8---8------8----8----|---8---8-------------|
---|8---8--8---8------8----8----|---8---8-------------|
---|9---9--9---9---9--9----9----|---9---9--10-9-------|
---|-------------10-10----------|---------------10---\|
---|----------------------------|---------------------|
---|----------------------------|---------------------|

|Bb          (Eb)  F               |Bb    (Eb)   F       
   Statements to a stranger    just asking for directions
|----------------------------------|-----------------------------|
|----------------------------------|-----------------------6-8-6-|
|----------------------------------|--------------------/7-------|
|8---------------------------------|-----------------------------|
|------------------8---------6-----|---5-6-5---6/8---------------|
|-------6-8-8-6--5---------8--8\---|6--------6-------------------|

                                                   [acoustic in]
|C                 F            |C            |     C C C|
   Turn from being help to being questions
|-------8----8-----8\------8----|8-------8----|----------|
|-------8----8-----8\------8----|8--------8-6-|-5--------|
|-------9----9-----9\------9----|9------------|--5-------|
|-------------------------------|-------------|----------|
|-------------------------------|-------------|----------|
|-------------------------------|-------------|----------|

[solo; verse pattern]
|G      C/G    |G     C/G     |G     C/G |F  C   |
|--------------|--------------|----------|-------|
|<12-----------|----0/1-3-0/1/|0---------|<1-<1--|
|<12---\5-<5--<|5-------------|----------|<2-<0--|
|--------------|--------------|----------|<3-<2--|
|--------------|--------------|----------|<3-<3--|
|--------------|--------------|----------|-------|

|G    C/G              |G    C/G           G      C/G   |F  C   |
|----------------------|---3--------------|-------------|-------|
|0---------------------|---3--------------|-------------|<1-<1--|
|0---------------------|---0--------------|-------------|<2-<0--|
|0----------0-2/0------|---0------0-2/0/2-|0------------|<3-<2--|
|x------0/2-------2/0--|-------0/2--------|-------------|<3-<3--|
|3----3----------------|3----3------------|-------------|-------|

|G         C/G          |G
   I see a man without a problem
|-----------------------|-------------
|-----------------------|3------------
|0----------------------|0------------
|0----------------------|0------------
|-----------------------|-------------
|3----------------------|3------------


================================================================================
#----------------------------------PLEASE NOTE---------------------------------#
#This file is the author's own work and represents their interpretation of the #
#song. You may only use this file for private study, scholarship, or research. #
#------------------------------------------------------------------------------#

I've Had Enough 
By The Who, Written by Pete Townshend, 1973 
©1973 Fabulous Music Ltd.

Originally transcribed by Kenny Sahr
=============
revised by
litgo@aol.com               05-25-1999
=============

Note: all leads are approximate.

G/D    xx0433                F6     xx3231
A/D    xx0655                Dm6    xx0201
Bb/D   xx0766                Amsus4 x02230
Bbii/D xx0331                F6maj7 xx3230
C/D    xx0988 and xx0553     Dsus2  xx0320
Bm/C   xx0777 and xx0432     A7     x02223
G      3x0033                A7/E   xx2223
D      xx0232                D/A    x00232
A5     x02255                


[intro; pedal D throughout]

|G/D     |        |A/D     |        |Bb/D    |Bbii/D  |
|3-------|--------|5-------|--------|6-------|1-------|
|3-------|--------|5-------|--------|6-------|3-------|
|4-------|--------|6-------|--------|7-------|3-------|
|00000000|00000000|00000000|00000000|00000000|00000000|
|--------|--------|--------|--------|--------|--------|
|--------|--------|--------|--------|--------|--------|

|C/D     |    Bm/C|C/D     |        |
|3-------|-------2|3-------|----3333|
|5-------|-------3|5-------|---55555|
|5-------|-------4|5-------|--555555|
|00000000|00000000|00000000|00000000|
|--------|--------|--------|--------|
|--------|--------|--------|--------|

|G/D     |           |A/D          |                     |Bbii/D    
 You were under the impression that when you were walking forwards
          |                |C/D    
That you'd end up further onward, 
   |                       |G  D  |A5    G D|A5  |
But things ain't quite that simple

You got altered information, you were told to not take chances 
You missed out on new dances, now you're losing all your dimples

| A        A A      A A   A|G D  A/| A   A A    A A   A|G D   A/|
|-9---9~---12-10-9h10p9-9--|-------|----5--------------|--------|
|-10--10~----------------10|-------|-----8-7-5---------|--------|
|--------------------------|9-9-6--|4/6~------6--------|--------|
|--------------------------|-------|-----------7-------|-5h6-7-5|
|--------------------------|-------|---------------5h6-|7-------|
|--------------------------|-------|-------------------|--------|

  |A           A A/G A   A       |G           D   |
My jacket's gonna be cut slim and checked, maybe a 
  |------------------------------|----------------|
  |------------------------------|----------------|
  |------------------------------|7^-7^-7^-7^-5---|
  |7-----------------------------|----------------|
  |------------------------------|----------------|
  |------------------------------|----------------|

|A        A   A/G A          A   |G       D     |
 Touch of seersucker with an open neck, I ride a
|--------------------------------|--------------|
|--------------------------------|--------------|
|-5------------------------------|--------------|
|----5-----7~--------------------|--------------|
|-----------------0----------3\--|-0------------|
|--------------------------------|--------------|

|A  A/G A           A       |G        D      |
 GS Scooter with my hair cut neat, I wear my 
|---------------------------|----------------|
|---------------------------|----------------|
|4^(6)/\---/\---------------|-4^\-----2------|
|---------------------------|----------------|
|---------------------------|----------------|
|---------------------------|----------------|

|A       A/G  A      A       |        |
 Wartime coat in the wind and sleet
|----------------------------|--------|
|----------------------------|--------|
|2---------------------------|--------|
|----------------------------|--------|
|----------------------------|--------|
|----------------------------|--------|

[6/8]
|Amsus4 |   |   |   |Amsus4  |   |   |   |
|-------|
|-------|
|2------|
|2------|
|0------|
|-------|

|Amsus4|   |   |      Amsus4(G)|F6maj7|     |Dsus2   |    |
 Love,          reign o'er      me,  rain on me 

|Amsus4|   |   |      Amsus4(G)|F6maj7|     |Dsus2   |    |
 Love,           rain on        me,                 

[4/4]
|Dsus4 |    |   |   |D  D/A |D  D/A  |D  D/A   |D  D/A |
 Love.................

    |D    D/A     |D    D/A    |D    D/A     |A7   A7/E
I've had enough of livin', I've had enough of dyin'
|A7   A7/E    |A7    A7/E|A7   A7/E    |D     D/A |
 Had enough of smilin',   had enough of crying

    |D     D/A    |D        D/A    |D          D/A     |A7   A7/E  
I've taken all the high roads, I've squandered and I've saved
    |A7   A7/E    |A7      A7/E    |A7   A7/E    |D    D/A  |
I've had enough of childhood,  I've had enough of graves

|Dsus4  |Dsus4 |D D/A|D   D/A |

I've had enough of livin', I've had enough of dyin'
I've had enough of smilin', I've had enough of crying
I've taken all the high roads, I've squandered and I've saved
I've had enough of childhood, I've had enough of graves

|G/D     |A/D     |Bb/D    |C/D     |C/D     |C/D     |C/D     |
(graves)                                                       |
|3-------|5-------|6-------|8-------|8-------|8-------|8-------|
|3-------|5-------|6-------|8-------|8-------|8-------|8-------|
|4-------|6-------|7-------|9-------|9-------|9-------|9-------|
|00000000|00000000|00000000|00000000|00000000|00000000|00000000|
|--------|--------|--------|--------|--------|--------|--------|
|--------|--------|--------|--------|--------|--------|--------|

[repeat verse]
Get a job and fight to keep it, strike out to reach a mountain 
Be so nice on the outside, but inside keep ambition

|G  D       A|A           |G       D      A|A
(bi-tion)
|7\----------|------------|--3-------2-----|-----|
|8\----------|--2--2--2---|--3-------3-----|-----|
|7\----------|2-4^-4^-4-2-|--0-------2-----|2----|
|---0-0------|------------|----------------|2----|
|------------|------------|0-------0------0|0--5\|
|------------|------------|----------------|-----|

Don't cry because you hunt them, hurt them first, they'll love you
There's a millionaire above you and you're under his suspicion 

|G  D       A|A           |G         D     A|A       |
(picion)                                              
|------------|------------|--12------12-----|9~------|
|------------|---------10h|12---10h12---7/10|----12^\|
|0------2----|2-----------|-----------------|--------|
|0--0-4------|2-----------|-----------------|--------|
|------------|0-----------|-----------------|--------|
|------------|------------|-----------------|--------|

| A     A  A     A   A     A|G  D   |
|---------------------------|-------|
|-10-10/10-10/10-10/10-10/10|10-10--|
|---------------------------|-------|
|---------------------------|-------|
|---------------------------|-------|
|---------------------------|-------|

| A   A A    A A                    A|G  D   A/|
|10/12-12-12-10-10-9h10p9------------|---------|
|------------------------10----------|---------|
|---------------------------7-9-7--6/|4--2h4p2-|
|------------------------------------|---------|
|------------------------------------|---------|
|------------------------------------|---------|

  |A           A A/G A   A       |G           D   |
My jacket's gonna be cut slim and checked, maybe a 
  |------------------------------|----------------|
  |------------------------------|----------------|
  |-4^\-2-4^\-4^--\------2-------|---------------2|
  |------------------------------|---------------2|
  |------------------------------|---------------0|
  |------------------------------|----------------|

|A            A/G A          A   |G       D     |
 Touch of seersucker with an open neck, I ride a
|--------------------------------|--------------|
|--------------------------------|--------------|
|2-------------------------------|--------------|
|2-------------------------------|--------------|
|0-------------------------------|--------------|
|--------------------------------|--------------|

|A  A/G A           A       |G        D      |
 GS Scooter with my hair cut neat, I wear my 
|17/17-17--------17\--------|----------------|
|14/14-14--------14\--------|----------------|
|14/14-14--------14\--------|---------------2|
|-------------------------2/|2-5\2--5\2-----2|
|-------------------------0/|0-0------0-----0|
|---------------------------|----------------|

|A       A/G  A      A       |A       |
 Wartime coat in the wind and sleet
|----------------------------|--------|
|----------------------------|--------|
|2------4^--2--------2-------|--------|
|2-------------------2-------|--------|
|0-------------------0-------|--------|
|----------------------------|--------|

Love, rain on me, rain o'er me 
Love, reign o'er me, Love.................

I've had enough of dancehalls, I've had enough of pills
I've had enough of streetfights, I've seen my share of kills 
I'm finished with the fashions and actin' like I'm tough 
                                                             |G G G G
I'm bored with hate and passion, I've had enough of trying to love


================================================================================
#----------------------------------PLEASE NOTE---------------------------------#
#This file is the author's own work and represents their interpretation of the #
#song. You may only use this file for private study, scholarship, or research. #
#------------------------------------------------------------------------------#

5:15
By The Who, Written by Pete Townshend, 1973 
©1973 Fabulous Music Ltd.

==============
transcribed by
litgo@aol.com               07-03-2001
==============             

Capo: 3rd fret

Chords (with capo):
Fmaj7/G            3 8 10 9 x x 
G7                 3 8 9 7 3 3 
Em/G               3 7 9 7 3 3
Am/G               3 7 7 5 3 3
G11                3 5 7 5 3 3
Cmaj7              x 3 5 4 5 3

G (E5)             355xxx or 3557xx
G6 (E6)            375xxx
F (D)              x3356x or xx3565
C (A)              x3555x and x35588
C7                 x38388
FII(add4)          x37368
Fadd9              x33563
Bb6/D (G6/B)       x53363
Csus4              x3556x


[Intro]
[guitar 1]
|Fmaj7/G  |G7      |Em/G   |Am/G   |G11    |G          |Cmaj7   |           |
|---------|--------|-------|-------|-------|-----------|--------|-----------|
|---------|--------|-------|-------|-------|-----------|5-------|-----------|
|-9---9--\|-7-7----|-7-7--\|-5-5---|-5-5---|-4-4-------|4-------|--4--4--4--|
|5--5-----|5-5-----|5-5----|5-5----|5-5----|5-5--------|5-------|--5--5--5--|
|---------|--------|-------|-------|-------|------3x-3x|3-------|--------3-3|
|---------|-----3-3|-------|-------|----3-3|-----------|--------|-----------|

|Fmaj7/G             |G7              |Em/G            |Am/G            |
         Why should I care?                Why should I care?            
|--------------------|----------------|----------------|----------------|
|--------------------|----------------|----------------|----------------|
|---------9--9--9--9-|7-7-7-7-7-7-7-7-|7-7-7-7-7-7-7-7-|5-5-5-5-5-5-5-5-|
|---10-10-10-10-10-10|9-9-9-9-9-9-9-9-|9-9-9-9-9-9-9-9-|7-7-7-7-7-7-7-7-|
|8--8--8--8--8--8--8-|8-8-8-8-8-8-8-8-|7-7-7-7-7-7-7-7-|7-7-7-7-7-7-7-7-|
|--------------------|----------------|----------------|----------------|
 [palm mute]

|G11                    |G                 |C            |              |
|[guitar 1]                                                             |
|-----------------------|------------------|-------------|--------------|
|-----------------------|------------------|-------------|--------------|
|5--5--5--5--5--5--5--5-|4-4-4-4-4-4-4--4--|5------------|----5-5-5-5---|
|7--7--7--7--7--7--7--7-|5-5-5-5-5-5-5--5--|5------------|--5-5-5-5-5---|
|5--5--5--5--5--5--5--5-|5-5-5-5-5-5-5--5--|3-----------3|3-3-3-3-3-3---|
|-----------------------|------------------|-------------|--------------|
|[guitar 2]                                                             |
|-----------------------|------------------|-------------|--------------|
|-----------------------|------------------|-------------|--------------|
|19\17-17\16-16\14-14\12|12\10-10\9-9\7-7/9|9-------<----|--------------|
|-----------------------|------------------|-------------|--------------|
|-----------------------|------------------|-------------|--------------|
|-----------------------|------------------|-------------|--xxxxxx------|
|                                                  [vol swell]          |
|[guitar 3]                                                             |
|19\17-17\15-15\13-13\12|12\10-10\8-8\7-7/8|8------------|--------------|
|-----------------------|------------------|-------------|--------------|
|-----------------------|------------------|-------------|--------------|
|-----------------------|------------------|-------------|--------------|
|-----------------------|------------------|-------------|--------------|
|-----------------------|------------------|-------------|--------------|

[for one guitar; stage versions]
|G11                         |G                      |C
|15\13--13\12--12\10--10\8---|-8\7---7\5---5\3---7---|7/8----
|17\15--15\13--13\12--12\10--|10\8---8\6---6\5---5p3-|-5-----
|----------------------------|-----------------------|-------
|----------------------------|-----------------------|-------
|----------------------------|-----------------------|-------
|----------------------------|-----------------------|-------

                                       x3
||:G                    |G       C    :||G                    |G       C    |
||[gtr 1]                                                                   |
||----------------------|--------------||---------------------|-------------|
||----------------------|--------------||---------------------|-------------|
||.------5-3-h4p3h4p3h4-|----3---5-5--.||------5-3-h4p3h4p3h4-|----3-----5--|
||.5-5-3-5-3------------|5-5-3---5-5--.||5-5-3-5-3------------|5-5-3-----5--|
||-5-5-3----------------|5-5---7-3-----||5-5-3----------------|5-5---7-3----|
||----------------------|--------------||---------------------|-------------|
|| G5                              G5  ||G5                              G5 |
||[gtr 2]                                                                   |
||----------------------|--------------||---------------------|3------------|
||----------------------|--------------||--------------------/|8------------|
||.---------------------|----------7-7.||---------------------|-------------|
||.---------------------|----------5-5.||---------------------|------xxx----|
||-5--------------------|----------5-5-||5--------------------|------xxx----|
||-3--------------------|----------3-3-||3--------------------|-----------3-|

[verse]
|G       G6  G G6 |G     G6 G  G6      |
 Girls of fifteen, sexually knowing (the)
|[gtr 1]                               |
|-----------------|--------------------|
|---------3-----3-|------3-------------|
|---------5-----5-|------5-------------|
|5-----5--5--5--5-|5--5--5--5---5------|
|5-----5--7--5--7-|5--5--7--5---7------|
|3-----3--3--3--3-|3--3--3--3---3----3-|
|[gtr 2]                               |
|-----------------|--------------------|
|-----------------|--------------------|
|-----------------|--------------------|
|-----------------|--------------------|
|-----------------|--------------------|
|(3)--------------|--------------------|

   |F          C        |G   G6    G    G6     |
The ushers are sniffing, eau-du-cologning  (the)
   |[gtr 1]                                    |
   |--------------------|----------------------|
   |6-------------------|----------------------|
   |5----------5--------|----------------------|
   |3----------5--------|5---5--5--5--5--------|
   |3----------3--------|5---5--7--5--7------5-|
   |--------------------|3---3--3--3---------3-|

   |G       G6  G G6    |G   G6   G  G6     |
The seats are seductive, celibate sitting  
   |[gtr 1]                                 |
   |--------------------|-------------------|
   |--------6-------5---|-------------------|
   |--------7-------5---|-------------------|
   |5----5--5---5---5---|5-5------5---------|
   |5----5------5---7---|5-5-7----5---7-----|
   |3----3------3---3---|3-3-3----3---3----3|

      |F     C      |G   G6    G G6   |
Pretty girls digging prettier women
      |[gtr 1]                        |
      |-------------|-----------------|
      |6-----8------|-----------------|
      |5-----5------|-----------------|
      |3-----5------|5---5------------|
      |3-----3------|5---5--7--5--7---|
      |-------------|3---3--3--3------|

||: C7        FII(add4)| C7           FII(add4):||
    Magically bored on a quiet street corner      
||[gtr 1]                                       ||
||----8----------8-----|-----8------------8-----||
||------8----------6---|-------8------------6---||
||.-------3----------3-|---------3------------3.||
||.7/8-------8\7-------|7/8----------8\7-------.||
||---------------------|------------------------||
||---------------------|------------------------||
||[gtr 3]                                       ||
||------12-------13----|----12-----------13-----||
||----13-13-----13-13--|--13--13-------13--13---||
||.-12-----12-/14---14-|12------12--/14------14.||
||.--------------------|-----------------------.||
||---------------------|------------------------||
||---------------------|------------------------||

|C7       Fadd4         |C7            Fadd4  |
 Free frustration in our minds and our toes
|C7          Fadd4    |C7      Fadd4   |
 Quiet storm-water m-m-my generation
|C7         Fadd4 |C5                   |G...
 Uppers and downers, either way blood flows
|-----8--------8--|----8----8-----------|
|------8--------6-|---8-----8-----------|
|-------3--------3|---------3-----------|
|7/8-------8\7----|7/8------8-----------|
|-----------------|---------------------|
|-----------------|---------------------|
                  |[gtr 3]              |
|--12--------13---|----3----------------|
|-13-13----13--13-|---------------------|
|12---12-/14----14|12-------3-----------|
|-----------------|---------------------|
|-----------------|---------------------|
|-----------------|---------------------|

|G                    |G       C    |G                    |G       C    |
|[gtr 1]                                                                |
|---------------------|-------------|---------------------|-------------|
|---------------------|-------------|---------------------|-------------|
|------5-3-h4p3h4p3h4-|----3---5-5--|------5-3-h4p3h4p3h4-|----3-----5--|
|5-5-3-5-3------------|5-5-3---5-5--|5-5-3-5-3------------|5-5-3---5-5--|
|5-5-3----------------|5-5---7------|5-5-3----------------|5-5---7-3-3--|
|---------------------|-------------|---------------------|-------------|
|G5                              G5 |G5                              G5 |
|[gtr 2]                                                                |
|---------------------|-------------|---------------------|-------------|
|---------------------|-------------|---------------------|-------------|
|7--------------------|-------------|7--------------------|-------------|
|5--------------------|-------------|5--------------------|------xxx----|
|5--------------------|-------------|5--------------------|------xxx----|
|3--------------------|-------------|3--------------------|-----------3-|

|G                    |G       C    |G                    |G       C    |
|[gtr 1]                                                                |
|---------------------|--------8-8--|---------------------|-------------|
|---------------------|--------8-8--|---------------------|-------------|
|------5-3-h4p3h4p3h4-|----3---5-5--|------5-3-h4p3h4p3h4-|----3---5----|
|5-5-3-5-3------------|5-5-3-----5--|5-5-3-5-3------------|5-5-3---5----|
|5-5-3----------------|5-5---7---3--|5-5-3----------------|5-5-3-7-3----|
|---------------------|-------------|---------------------|-------------|
|G5                              G5 |G5                              G5 |
|[gtr 2]                                                                |
|---------------------|-------------|---------------------|3------------|
|---------------------|-------------|--------------------/|8------------|
|7--------------------|----------7-7|---------------------|-------------|
|5--------------------|----------5-5|---------------------|------xxx----|
|5--------------------|----------5-5|5--------------------|------xxx----|
|3--------------------|----------3-3|3--------------------|-----------3-|

|Fadd9  Bb6/D   |Fadd9   Bb6/D  ||
(Inside outside) leave me alone
|[gtr 1]                        ||
|---------------|---------------||
|---6------6-6--|---6------6-6--||
|-5--5--------3-|-5--5--------3.||
|3-3--3---3-----|3-3--3---3----.||
|------3h5------|------3h5------||
|---------------|---------------||

||:Fadd9  Bb6/D   |Fadd9   Bb6/D :||
  (Inside outside) Nowhere is home
||[gtr 1]                         ||
||----------------|---------------||
||----6-------6---|---6-------6---||
||.-5--5-----3-3--|-5--5-----3-3-.||
||.3-3--3---3-----|3-3--3---3----.||
||-------3h5------|------3h5------||
||----------------|---------------||

|Fadd9  Bb6/D   |Fadd9        Bb6/D  |
(Inside outside) Where have I been

|F                     |Csus4          |G            |G              |
 Out of my brain on the five-        fifteen               (Out of my)
|[gtr 1]                                                             |
|----------------------|---------------|-------------|---------------|
|6--6--6--6--6--6--6-6-|6-6-6-6-6-6-6-6|-------------|---------------|
|5--5--5--5--5--5--5-5-|5-5-5-5-5-5-5-5|-------------|---------------|
|3--3--3--3--3--3--3-3-|5-5-5-5-5-5-5-5|5-5-----5----|5-5-----5---5-3|
|3--3--3--3--3--3--3-3-|3-3-3-3-3-3-3-3|5-5--7--5h7--|5-5--7--5h7-5-3|
|----------------------|---------------|3-3--3--3----|3-3--3--3---3--|
|[gtr 2]                                                             |
|5------/8----------/12|---------------|<15>---------|---------------|
|6--------10-----------|13---/-17-\15--|<15>---------|------3--------|
|----------------------|---------------|-------------|--------------5|
|----------------------|---------------|-------------|--------------3|
|----------------------|---------------|-------------|--------------3|
|----------------------|---------------|---------15\-|3-----------8\-|


         |F     C      |G               |
Out of my brain on the train
         |------8------|----------------|
         |6-----8------|----------------|
         |5-----5------|----------------|
         |3-----5------|5-5--------5---5|
         |3-----3-----5|5-5---7----5h7-5|
         |------------3|3-3---3----3---3|
         |                              |
         |-------------|----------------|
         |6------------|--------------3-|
         |5-----5------|--------------5^|
         |3-----5------|---5/5/5/5/5/5--|
         |3-----3--3---|----------------|
         |------------3|----------------|

|G                  |                   |F      C          |G                 |
                                Outta my brain on the    train on the train
|[gtr 1]                                                                      |
|-------------------|-------------------|------------------|------------------|
|-------------------|-------------------|6------8----------|------------------|
|-------------------|------5------------|5------5----------|------------------|
|5---5-----5--\-----|5--5--5-----5--\---|3------5----------|5-5-----5---------|
|5---5--7--5h7\-----|5--5--7-----5h7\---|3------3---------5|5-5--7--5h7-------|
|3---3--3--3--------|3--3--3-----3-----3|-----------------3|3-3--3--3--------3|
|[gtr 2]                                                                      |
|----------------3--|-------------------|------------------|------------------|
|-----------------/8|---8-8--8/8/8/8-8/8|8/8/--------------|------------------|
|5^\p3-3h5-3--------|-------------------|-----10/12-12/12--|12------12\-------|
|-----5-----5-3h5---|-------------------|------------------|------------------|
|-------------------|-------------------|------------------|--------10\-------|
|-------------------|-------------------|------------------|--------------8\--|

[verse 2]
 |G       G6  G G6   |G     G6 G  G6      |
A raft in the quarry, slowly sinking
 |[gtr 1]                                 |
 |-------------------|--------------------|
 |-------------------|------3------3------|
 |---------5-----5---|------5------5------|
 |5-----5--5--5--5---|5--5--5--5---5------|
 |5-----5--7--5--7---|5--5--7--5---7------|
 |3-----3--3--3--3---|3--3--3--3---3----3-|
 |[gtr 2]                                 |
 |-------------------|3-------------------|
 |-------------------|3h8-----------------|
 |-------------------|7-------------------|
 |5------------------|--------------------|
 |5------------------|--------------------|
 |3------------------|--------------------|

|F         C     |G  G6  G    G6    |
 Back of a lorry, holy hitching
|G      G6  G G6  |G G6  G    G6    |
 Dreadfully sorry, apple scrumping
|F         C   |G   G6    G    G6   |
 Born in a war, birthday punching

|C7     Fadd4   | C7          Fadd4   |
 He-man drag in a glittering ballroom
|[gtr 1]                              |
|---8-------8---|-----8----------8----|
|----8-------6--|-------8----------6--|
|-----3-------3-|---------3---------3-|
|7/8----8\7-----|7/8--------8\7-------|
|---------------|---------------------|
|---------------|---------------------|
|[gtr 3]                              |
|--12------13---|----12---------13----|
|-13-13---13-13-|--13--13------13-13--|
|12---12/14---14|12------12--/14----14|
|---------------|---------------------|
|---------------|---------------------|
|---------------|---------------------|

|C7        Fadd4        |C7          Fadd4    |
 Greyly outrageous in my high-heeled shoes
|[gtr 1]                                      |
|---8----------8--------|---------------------|
|-----8---------6-------|---------------------|
|-------3--------3------|7^-7^---7^--7---5~---|
|7/8-------8\7----------|---------------------|
|-----------------------|--------------------3|
|-----------------------|---------------------|
|[gtr 3]                                      |
|----12---------13------|----12---------13----|
|--13-13------13--13----|--13--13-----13--13--|
|12-----12-/14------14--|12-----12-/14-----14-|
|-----------------------|---------------------|
|-----------------------|---------------------|
|-----------------------|---------------------|

|C7        Fadd4      |C7                Fadd4     |
 Tightly undone,  they know what they're showin'
|[gtr 1]                                           |
|---8----------8------|-----8------------------8---|
|-----8---------6-----|-------8-----------------6--|
|-------3--------3----|---------3----------------3-|
|7/8-------8/7--------|7/8--------------8/7--------|
|---------------------|----------------------------|
|---------------------|----------------------------|
|[gtr 3]                                           |
|--12--------13-------|----12-------------13-------|
|-13-13-----13-13-----|--13--13---------13--13-----|
|12---12--/14---14----|12------12----/14------14---|
|---------------------|----------------------------|
|---------------------|----------------------------|
|---------------------|----------------------------|


|C7        Fadd4          |C7      F7      |G... 
 Sadly ecstatic that their heroes       are news
|[gtr 1]                                   |
|-------------------------|----------------|
|-------------------------|----------------|
|7^-7-7p5--5~---5---------|5/5/5/5/5/5---5-|
|--------7----------------|----------------|
|-------------------------|----------------|
|-------------------------|----------------|
|[gtr 3]                                   |
|----12---------13--------|--13------------|
|--13-13------13--13------|-13-13----------|
|12-----12-/14------14----|12---12---------|
|-------------------------|----------------|
|-------------------------|----------------|
|-------------------------|----------------|
|[gtr 2]                                   |
|-------------------------|----------------|
|-------------------------|----------------|
|-------------------------|----------------|
|-------------------------|----------------|
|-------------------------|-------------3--|
|-------------------------|-------xxxxx----|


|G                    |G       C   |G                    |G       C   |
 (news)
|[gtr 1]                                                              |
|---------------------|----------8-|---------------------|--------8-8-|
|---------------------|--------8-8-|---------------------|--------8-8-|
|------5-3-h4p3h4p3h4-|----3---5-5-|------5-3-h4p3h4p3h4-|----3---5-5-|
|5-5-3-5-3------------|5-5-3---5-5-|5-5-3-5-3------------|5-5-3---5-5-|
|5-5-3----------------|5-5---7-----|5-5-3----------------|5-5---7-----|
|---------------------|------------|---------------------|------------|
|[gtr 2]                                                              |
|---------------------|------------|---------------------|------------|
|---------------------|------------|---------------------|------------|
|---------------------|------------|7--------------------|------------|
|5~-------------------|------------|5--------------------|------------|
|---------------------|------------|5--------------------|------------|
|---------------------|------------|3--------------------|------------|

|G                    |G       C   |G                    |G       C   
|[gtr 1]                                                              |
|---------------------|----------8-|---------------------|------------|
|---------------------|----------8-|---------------------|------------|
|------5-3-h4p3h4p3h4-|----3---5-5-|------5-3-h4p3h4p3h4-|----3---5-~-|
|5-5-3-5-3------------|5-5-3---5-5-|5-5-3-5-3------------|5-5-3---5-~-|
|5-5-3----------------|5-5---7-3---|5-5-3----------------|5-5---7-3-~-|
|---------------------|------------|---------------------|------------|
|[gtr 2]                                                              |
|3--------------------|------------|3--------------------|------------|
|3--------------------|------------|3--------------------|------------|
|12~------------------|--------x-x-|7~-------------------|------------|
|12~------------------|--------x-x-|5~-------------------|------------|
|10~------------------|--------x-x-|5~-------------------|------------|
|3--------------------|------------|3--------------------|------------|

|Fadd9  Bb6/D  ||:Fadd9   Bb6/D:||
(Inside outside) leave me alone
|[gtr 1]                        ||
|---3----------||---------------||
|--6-6------6--||----6------6-6-||
|-5---5----3-3-||.-5--5--------3||
|3--------3----||.3-3--3---3---.||
|------3h5-----||-------3h5-----||
|--------------||---------------||

|Fadd9  Bb6/D   |Fadd9   Bb6/D   |
(Inside outside) Nowhere is home

|Fadd9  Bb6/D   |Fadd9        Bb6/D  |
(Inside outside) Where have I been

|F                     |Csus4          |G             |G              |
 Out of my brain on the five-        fifteen                (Out of my)
|[gtr 1]                                                              |
|----------------------|---------------|--------------|---------------|
|6--------6--6--6--6-6-|---------------|--------------|-----3---------|
|5--------5--5--5--5-5-|5-5-5-5-5-5-5-5|--------------|-----5---------|
|3-----------3--3--3-3-|5-5-5-5-5-5-5-5|5----5--5---8^|5-5--5--5-----3|
|3-----------3--3--3-3-|3-3-3-3-3-3-3-3|5----7--5-7---|--5--7--5-7---3|
|----------------------|---------------|3----3--3-3---|--3--3--3-3-3--|
|[gtr 2]                                                              |
|5------/8----------/12|---------------|3-------------|---------------|
|6--------10-----------|13---/-17------|3-------------|------3--------|
|----------------------|-------------19|19~~----------|--------------5|
|----------------------|---------------|--------------|--------------3|
|----------------------|---------------|--------------|--------------3|
|----------------------|---------------|--------xxxxxx|3-3------------|


         |F     C      |G               |
Out of my brain on the train
         |[gtr 1]                       |
         |-------------|----------------|
         |6-----8------|-----5^-3-5^-3--|
         |5-----5------|-----5^-3-5^-3--|
         |3-----5------|5-------------8^|
         |3-----3-----5|5---------------|
         |------------3|3---------------|
         |[gtr 2]                       |
         |------8------|---------------3|
         |6-----8------|-----5---------3|
         |5-----5------|-----5^\-3------|
         |3-----5------|----------5-3---|
         |3-----3------|----------------|
         |-------------|----------------|

|G                      |                     |
 Outta my brain on the train on the train,    
|[gtr 1]                                      |
|-----------------------|---------------------|
|-----------------------|---------------------|
|-----------------------|---------------------|
|5---5-----5------------|5--5--------5--------|
|----5--7--5---7--------|5--5--7-----5--7-5---|
|----3--3--3---3--------|3--3--3-----3--3-3--3|
|[gtr 2]                                      |
|----3/3/3-3--3----3----|---3--------3-3-3----|
|------------------3----|--/8--8-8---8-6-3----|
|------------------x----|-------------------5^|
|------------------x----|---------------------|
|-----------------------|---------------------|
|---------------------3-|---------------------|

 |F      C            |G                   |
Wow, I'm outta my brain                 Whoo
 |[gtr 1]                                  |
 |-------8------------|--------------------|
 |6------8------------|--------------------|
 |5------5------------|-------5^-5p3-3-5p3-|
 |3------5------------|5-5----------5------|
 |3------3-----------5|5-5--7--------------|
 |-------------------3|3-3--3--------------|
 |[gtr 2]                                  |
 |--------------------|--------------------|
 |--------------------|--------------------|
 |\-3-5-3-------------|-------3-5^\p3-5~-3-|
 |---5---5-3----------|5-3-3-5------------5|
 |----------5-3--3----|---5----------------|
 |-------------6^-6^-3|--------------------|

|G              |                  |F        C         |G                 |
                         Out of my brain     on the train         Here it  
|[guitar 1]                                                               |
|---------------|------------------|-------------------|-------------3----|
|---------------|------------------|6--------8---------|-------------3----|
|5^-------------|------------------|5--------5---------|------------------|
|---5-----5-----|5-5------5--------|3--------5---------|5-5----5---------5|
|---5--7--5--7--|5-5--7---5---7----|3--------3--------5|5-5--7-5-7-------5|
|---3--3--3--3--|3-3--3---3---3---3|------------------3|3-3--3-3-3-------3|
|[guitar 2]                                                               |
|----3x---------|-------3----------|--6-8^-3-8^-8-6x-8^|---6-----------3--|
|---------------|-------3--3-8~-8--|8------------------|-----8~--------3--|
|5^(7)---5^\p3--|5p3----5^---------|-------------------|------------------|
|---------------|---5--------------|-------------------|------------------|
|---------------|------------------|-------------------|------------------|
|---------------|------------------|-------------------|------------------|

|G                                                      |
 comes                                                   
|[gtr 1]                                                 
|------------------------|------------------------------|
|------------------------|------------------------------|
|------------------------|-----------------------------5|
|5--5--------5-----------|5-----5----5-----------------3|
|5--5--7-----5-------7---|5-----5--7-5---7-------------3|
|3--3--3-----3-------3---|3-----3--3-3---3--------------|
|[gtr 2]                                                 
|------------------------|------------------------------|
|------15----------------|15^(17)-(^)15-15~~-----15^\-13|
|14^(16)-(^)14\-12-14^\12|------------------------------|
|------------------------|------------------------------|
|------------------------|------------------------------|
|------------------------|------------------------------|

|F      C         |G                |
Whoo,  out of   my brain    On the train
                                    |
|-----------------|-----3-3---------|
|6------8---------|-----3-3---------|
|5------5---------|-----7-7---------|
|3------5---------|5-5----5---------|
|3------3--------5|5-5----5---------|
|----------------3|3-3--3-3--------3|
|                                   |
|-----------------|---------16-16-16|
|15^\-13----------|-----------------|
|------14^\-12-14^|--12-12~---------|
|-----------------|-----------------|
|-----------------|-----------------|
|-----------------|-----------------|

|G                                 |F         C          |G                 |
  On the train                     Out of my brain on the train
|[gtr 1]                                                                    |
|----------------|-----------------|---------------------|---3--------------|
|----------------|-----3-----------|6---------8----------|/8-8-7-5-3--------|
|----------------|-----7-----------|5---------5----------|-----------3-4^---|
|5--5---------5--|-----------------|3---------5----------|-----------------5|
|5--5--7^-----5-7|5-5------5---7^-5|3---------3----------|------------------|
|3--3--3------3-3|3-3----3-3---3--3|---------------------|------------------|
|[gtr 2]                                                                    |
|15\--15\-----15\|---15\---15\-----|15-13-13-12-12--10--8|-----------------3|
|----------------|3------3-----3---|---------------------|8-10^\----6--6/8--|
|----3-----------|-----------------|---------------------|------------------|
|----------------|-----------------|---------------------|------------------|
|----------------|-----------------|---------------------|------------------|
|----------------|-----------------|---------------------|------------------|

|G            |                  |F      C       |G              |
|[gtr 1]                                                         |
|-------------|------------------|---------------|---------------|
|-------------|------------------|6--------------|---------------|
|-------------|-----------------5|5------5-------|---------------|
|(5)----------|--5------5-------3|3------5-------|5-5----5---7^--|
|----7--5-7---|5-5--7---5---7---3|3------3------5|5-5--7-5-7-----|
|----3--3-3---|3-3--3---3---3----|--------------3|3-3--3-3-3-----|
|[gtr 2]                                                         |
|-------------|------------------|---------------|---10----------|
|-------------|------------------|6~-----8-------|10^--(^)10\-8-8|
|7------------|-3h5--------3-7--5|5~-----5-------|---------------|
|5------------|--5-------5------3|3~-----5-------|---------------|
|5------------|--5--------------3|3~-----3-------|---------------|
|3---------xxx|x3--xxxx--3-------|---------------|---------------|

|G          |                  |F      C            |G                    |
|[guitar 1]                                                               |
|-----------|------------------|--------------------|-3-3-3-3-3-----------|
|-----------|------------------|6-------------------|/8-8-7-5-3-----------|
|-----------|-----------------5|5------5------------|-------------3h4^----|
|5------5---|5-5------5-------3|3------5------------|--------------------5|
|----7--5-7-|5-5--7---5---7-5-3|3------3------------|---------------------|
|3---3--3-3-|3-3--3---3---3----|--------------------|---------------------|
|[guitar 2]                                                               |
|------3----|------------------|--------------------|---------------------|
|8-----3----|------------------|--------------------|---------------------|
|----------/|14-12-14^\p12--12^|-12^\-10--7p5p3-3h4^|---------------------|
|-----------|------------------|--------------------|5--------------------|
|-----------|------------------|--------------------|---3-10^p3-6^p3-6^---|
|-----------|------------------|--------------------|---3-10^p3-6^p3-6^-6^|

|G        |                  |F      C          |G                      |
|[gtr 1]                                                                |
|---------|------------------|-------3----------|3----------------------|
|---------|------------------|6-----------------|-----------------------|
|---------|-----------------5|5-----------------|-----------------------|
|-----5---|5-5------5-------3|3-----------------|--5--------------------|
|--7--5-7-|5-5--7---5---7---3|3-----------------|--5--7-8-5-7----------5|
|--3--3-3-|3-3--3---3---3----|------------------|--3--3-3-3-3----------3|
|[gtr 2]                                                                |
|---------|------------------|------------------|-----------------------|
|------3--|---3--------------|---------------3--|--------3-----8\6-3h6p3|
|------5^\|-3-5-3------------|---------5p3-5-3--|-----5/7-3-7-7---------|
|---5-----|--------5-----5---|8p5p3-5-----5---5p|3-5/8---5--------------|
|---5-----|------------------|------------------|-----------------------|
|3--3-----|------------------|------------------|-----------------------|

|G              |                 |F       C              |G                |
|[gtr 1]                                                                    |
|---------------|-----------------|-----------------------|-----------------|
|---------------|-----------------|6----------------------|-----------------|
|---------------|----------------5|5-------5--------------|-----------------|
|(5)--5-----5---|5-------5-------3|3-------5--------------|5-5-5-8-5----7-5-|
|(5)--5--7--5-7-|5---7---5---7-5-3|3-------3--------------|5-5-5-5----5---5-|
|(3)--3--3--3-3-|3---3---3---3-3--|----------------------3|-----------------|
|[gtr 2]                                                                    |
|-3-6p3-3-------|-----------------|-----------------------|----------------3|
|-3----6--------|-----------------|-----------------------|----------------3|
|--------5p3-3--|-----------------|-----------------------|----------------7|
|-----------5-5p|3-3-----5-3-----3|3-5--3-5---3-5--5p3-5-3|5p3------------3h|
|---------------|-5-4p3-------3h5-|----3---5p3----3-------|---5-3-------5---|
|---------------|------6----------|---6----------6--------|-----3-6^-3------|


|G              |                |Fmaj7/G        |G7                |
|[gtr 1]                                                            |
|---------------|----------------|----3----------|------------------|
|---------------|----------------|---------------|------------------|
|---------------|----------------|---------------|------------------|
|------------3-5|~-----------3-5-|~--------------|----------3h5-3h5-|
|---------------|----------------|---------------|------------------|
|3-3-3-3-3-3----|3-3-3-3-3-3-----|-3-------------|------------------|
|[gtr 2]                                                            |
|~~~~~~~~-------|----------------|---3-----------|------------------|
|~~~~~~~~-------|----------------|--/8-----------|----------------6/|
|~~~~~~~~-------|----------------|---------------|------------------|
|5~~~~~~~-------|----------------|---------------|------------------|
|---------------|----------------|---------------|------------------|
|---------------|----------------|---------------|------------------|


|Em/G             |Am/G              |G11              |G                |
|[gtr 1]                                                                 |
|-----------------|------------------|-----------------|-----------------|
|-----------------|------------------|-----------------|-----------------|
|-----------------|------------------|-----------------|-----------------|
|----------3h5-3h5|-----------3h5-3h5|----------3h5-3h5|----------3h5-3h5|
|-----------------|------------------|-----------------|-----------------|
|3----------------|3-----------------|3----------------|3----------------|
|[gtr 2]                                                                 |
|-----------------|------------------|-----------------|-----------------|
|8~~~~~-----------|------------------|-----------------|-----------------|
|-----------------|------------------|-----------------|-----------------|
|-----------------|------------------|-----------------|-----------------|
|-----------------|------------------|-----------------|-----------------|
|-----------------|------------------|-----------------|-----------------|

|C                |Cmaj7             |
|[gtr 1]                             |
|-----------------|------------------|
|-----------------|------------------|
|-----------------|------------------|
|----------3h5-3h5|------------------|
|-----------------|------------------|
|3----------------|3-----------------|
|[gtr 2]                             |
|-----------------|------------------|
|-----------------|------------------|
|-----------------|------------------|
|-----------------|------------------|
|-----------------|------------------|
|-----------------|------------------|


|Fmaj7/G          |G7               |Em/G             |Am/G             |
     Why should I care?                  Why should I care?              
|[gtr 1]                                                                |
|-----------------|-----------------|-----------------|-----------------|
|-----------------|-----------------|-----------------|-----------------|
|-----------------|-----------------|-----------------|-----------------|
|-----------------|-----------------|-----------------|-----------------|
|-----------------|-----------------|-----------------|-----------------|
|3----------------|-----------------|-----------------|-----------------|

|G11                    |G                 |C                |
|[gtr 1]
|-----------------------|------------------|-----------------|
|-----------------------|------------------|-----------------|
|-----------------------|------------------|-----------------|
|-----------------------|------------------|-----------------|
|-----------------------|------------------|-----------------|
|-----------------------|------------------|-----------------|
|[Guitar 2]                                                  |
|-----------------------|------------------|-----------------|
|-----------------------|-------------3-3h5|5----------------|
|19\17-17\16-16\14-14\12|12\10-10\9-9------|-----------------|
|-----------------------|------------------|-----------------|
|-----------------------|------------------|-----------------|
|-----------------------|------------------|-----------------|
|[gtr 3]                                                     |
|19\17-17\15-15\13-13\12|12\10-10\8-8\7-7/8|8----------------|
|-----------------------|------------------|-----------------|
|-----------------------|------------------|-----------------|
|-----------------------|------------------|-----------------|
|-----------------------|------------------|-----------------|
|-----------------------|------------------|-----------------|


================================================================================
#----------------------------------PLEASE NOTE---------------------------------#
#This file is the author's own work and represents their interpretation of the #
#song. You may only use this file for private study, scholarship, or research. #
#------------------------------------------------------------------------------#

Sea and Sand
By The Who, Written by Pete Townshend, 1973 
©1973 Fabulous Music Ltd.

==============                                                        
transcribed by         07-27-1997          Whotabs                    
litgo@aol.com      rev 03-19-2002          www.thewho.net/whotabs     
==============                                                        

guitar 1: acoustic
guitar 2, w/volume pedal: electric - leads
guitar 3: electric - rhythm

Asus2  x02200
D      xx0232
E      022400 and 022100
G      3x0033
C9     x32033
G/B    x20030
Am     x02210
Fmaj7  1tx3210 (use thumb)
Em     022000
Dsus4  xx0233
Dsus2  xx0230
A      x022xx
A/G    3x22xx
D/A    x0423x
A5     x02255

[intro]

|Asus2        |Asus2        |Asus2        |Asus2        |
|[gtr 1 - acoustic]                                     |
|--0*-0--0*-0*|--0*-0--0*-0*|--0*-0--0*---|--0*-0--0*---|
|-------0-----|-------0-----|-------0---0*|-------0---0*|
|-2--------2--|-2--------2--|-2--------2--|-2--------2--|
|-------------|-------------|-------------|-------------|
|0------------|0------------|0------------|0------------|
|-------------|-------------|-------------|-------------|
|[* pluck w/middle finger]                              |
|                                                       |
|[gtr 2]                                                |
|-------------|---<12-------|-------------|---<12-------|
|-------------|<15-------<12|<14----------|<15-------<12|
|-------------|-------------|-------------|-------------|
|-------------|-------------|-------------|-------------|
|-------------|-------------|-------------|-------------|
|-------------|-------------|-------------|-------------|
               [vol. pedal swells]

|Asus2              |Asus2  |Asus2               |Asus2                      |
 Here by the sea and sand    nothing ever goes as planned,    I just couldn't 
|[gtr 1]                                                                     |
|----0*-0---0*------|-------|--------------------|---------------------------|
|---------0------0*-|-------|--------------------|---------------------------|
|--2-----------2----|----%--|---------%----------|------------%--------------|
|-------------------|-------|--------------------|---------------------------|
|0------------------|-------|--------------------|---------------------------|
|-------------------|-------|--------------------|---------------------------|
|[gtr 2]                                                                     |
|----------------<12|<12-<17|<12-----------------|---------------------------|
|<14----------------|-------|----------------<10-|<14------------------------|
|-------------------|-------|--------------------|---------------------------|
|-------------------|-------|--------------------|---------------------------|
|-------------------|-------|--------------------|---------------------------|
|-------------------|-------|--------------------|-----------------------10\-|

[gtr 1]
|D    D         |E   E              |A             |Asus4 A     |
 Face going home,      It was just a drag on my own.             
|[gtr 2]                                                        |
|-----2---------|0------------------|--------------|-------5----|
|-----3---------|0------------------|----------5---|5------5----|
|-----2---------|4------------------|2---------4^--|4^\----2----|
|0----0---------|2------------------|2-------------|-------2----|
|---------------|2----------------0-|0-------------|----0--0----|
|-----------10\-|0------------------|--------------|------------|
|[gtr 3 in]                                                     |
|D    D         |E   E              |A             |D/A  A      |
|2----2--------0|-------------------|--------------|------------|
|3----3--------0|-------------------|--------------|3-3---------|
|2----2---------|----4--------------|2-------------|2-2--2------|
|0----0---------|2-0-2--------------|2-------------|4-4--2------|
|---------------|2-0-2--------------|0-------------|0-0--0------|
|---------------|0-0-0--------------|--------------|------------|

    |Asus2           |Asus2         |Asus2           |Asus2                   |
They finally threw me out,        my mom got drunk on stout,    My dad couldn't
    |[gtr 1; repeat intro]                           |                        |
    |---0*-0---0*----|--------------|----------------|------------------------|
    |--------0-----0*|--------------|----------------|------------------------|
    |-2----------2---|-------%------|--------%-------|------------%-----------|
    |----------------|--------------|----------------|------------------------|
    |0---------------|--------------|----------------|------------------------|
    |----------------|--------------|----------------|------------------------|
    |[gtr 2]                                         |                        |
    |----------------|--------------|----------------|----------<17-----------|
    |----------------|--<12---<14---|<15-------<17---|------------------------|
    |----------------|--------------|----------------|------------------------|
    |----------------|--------------|----------------|------------------------|
    |----------------|--------------|----------------|------------------------|
    |----------------|--------------|----------------|------------------12\---|
    |[gtr 3; tacit]                                                           |

[gtr 1]
|D     D           |E   E                    |A     D/A D/A  |
 stand on two feet      as he lectured about morality         
|[gtr 2]                                                     |
|2-----2-----------|-------------------------|---5-----------|
|3-----3-----------|-------------------------|---5-----------|
|2-----2-----------|-------------------------|---2---4^\-2---|
|0-----0-----------|--2-0-------2--0---------|---2--------4--|
|------------------|x-------2---------0----3^|0--0-----------|
|------------------|-------3-----------------|---------------|
|[gtr 3]                                                     |
|D     D           |E   E                    |A     D/A D/A  |
|2-----2--------0--|-------------------------|---------------|
|3-----3--------0--|-------------------------|---------3-3---|
|2-----2--------4--|----4--------------------|2-2----2-2-2---|
|0-----0--------2--|2-0-2------------------x-|2-2----4-4-4---|
|------------------|2-0-2------------------x-|0-0----0-0-0---|
|------------------|0-0-0--------------------|---------------|

[gtr 1]
|A                     |D   D              |E   E                 |
    And now I guess the family's complete          with me hanging 
|[gtr 2]                                                          |
|----------------------|----2------2-0-0---|----------------------|
|------5---------------|----3----------0---|----------------------|
|2-2---2---------------|----2--------------|----------------------|
|------2----------2----|0---0--------------|2---2-----------------|
|----0-------0-2-4-4-0-|-------------------|2-2-2--------4--2-0---|
|----------------------|-------------------|--3-0-----/4----------|
|[gtr 3]                                                          |
|----------------------|2---2--------------|----------------------|
|3-3-2----2--2---------|3---3--------------|----------------------|
|2-2-2----2--2---------|2---2--------------|4---4-----------------|
|4-4-2----2--2---------|0---0--------------|2---2-----------------|
|0-0-0----0--0---------|-------------------|2---2-----------------|
|----------------------|-----------------0-|0---0-----------------|

[gtr 1]                 [2/4]       [4/4]             
|G            D         |D          |A      |        |
'round on the streets or here on the beach.           
|[gtr 2]                            |                |
|3------------2---------|-----------|-------|--------|
|3------------3---------|-----------|-------|--------|
|0------------2---------|4^\p2------|2------|--------|
|0------------0---------|-----------|2------|--------|
|-----------------------|-----------|0------|--------|
|3----------------------|-----------|-------|--------|
|[gtr 3]                            |                |
|G            D         |D          |A      |        |
|3------------2---------|2----------|-------|--------|
|3------------3---------|3----------|-------|--------|
|0------------2---------|2----------|2------|--------|
|0------------0---------|0----------|2------|--------|
|-----------------------|-----------|0------|--------|
|3----------------------|-----------|-------|--------|

|Cadd9         |G/B      |Am            |Am        |
     The girl I love        is a perfect dresser    
|[gtr 1]                                           |
|-------3------|----0----|----0---0-----|---0---0--|
|-----3---3----|---3-3-0-|---1---0------|--1-----0-|
|---0--------0-|--0---0-0|--2---2---2---|-2---2---2|
|----------2---|---------|--------------|----------|
|3-------------|2--------|0-------------|0---------|
|--------------|---------|--------------|----------|
|[gtr 2; tacit]                                    |
|[gtr 3]                                           |
|-------3------|----0----|----0---------|----0-----|
|-----3---3----|---3-3---|---1--1-------|---1--1---|
|---0------0-0-|--0---0-0|--2-----2--2--|--2----2--|
|-----------2--|-------0-|---------2----|--------2-|
|3-------------|2--------|0-------------|0--------0|
|--------------|---------|--------------|----------|

|Fmaj7          |Em             |D          D|D              |
     Wears every fashion gets it to the tee                   
|[gtr 1]                                                     |
|-----0---------|-----0---------|------5---5-|--------5------|
|---1--1--------|----0--0-------|----3---3--3|------3---3----|
|--2-----2---2--|--0------0---0-|--2------2--|2---2-------2--|
|3---------3----|2----------2---|0-----------|--0----------0-|
|---------------|---------------|------------|---------------|
|---------------|---------------|------------|---------------|
|[gtr 2; tacit]                                              |
|[gtr 3]                                                     |
|               |               |        Dsus4    D Dsus2 D  |
|-----0---------|-----0---------|------2----3|----2---0---2--|
|---1--1--------|----0--0-------|----3---3--3|----3---3---3--|
|--2-----2---2--|--0------0---0-|--2------2-2|----2---2---2--|
|3---------3----|2----------2---|0----------0|----0---0---0--|
|---------------|---------------|------------|---------------|
|---------------|---------------|------------|---------------|

|Cadd9       |G/B        |Am             |Am               |
     Heavens above,           I've got to match her         
|[gtr 1]                                                   |
|-----3------|----0-0----|----0-0--------|----0------------|
|---3---3----|---3-3-3---|-------1-------|---0--0----------|
|-0--------0-|--0-----0--|--2-----2------|--2----2---------|
|--------2---|-----------|-2-------2-----|-2------2--------|
|3-----------|2----------|0--------------|0----------------|
|------------|-----------|---------------|-----------------|
|[gtr 2]                                                   |
|------------|-----------|---------------|-----------------|
|---5-<6----/|8/10-<10p8-|--------<10----|---<13--<15-<17--|
|------------|----------9|---------------|-----------------|
|------------|-----------|---------------|-----------------|
|------------|-----------|---------------|-----------------|
|------------|-----------|---------------|-----------------|
|[gtr 3]                                                   |
|-----0------|----0------|----0----------|----0------------|
|---3---3----|---3-3-----|---1--1--------|---1--1----------|
|-0------0--0|--0---0-0--|--2-----2------|--2----2---------|
|----------2-|-------0---|-2--------2----|-2------2--------|
|3-----------|2----------|0--------------|0----------------|
|------------|-----------|---------------|-----------------|

   |Fmaj7             |Em              |D           |
She knows just how she wants her man to be           
   |[gtr 1]                                         |
---|-----0------------|-----0----------|--5---5-----|
---|---1--1-----------|----0--0--------|---3----3---|
---|--2-----2---2-----|--0------0---0--|----2----2--|
---|3---------3-------|2----------2----|0-----------|
---|------------------|----------------|------------|
---|------------------|----------------|------------|
   |[gtr 2]                                         |
---|------------------|----------------|------------|
---|<13-----------<15-|<10--------<5---|<3----------|
---|------------------|----------------|------------|
---|------------------|----------------|------------|
---|------------------|----------------|------------|
---|------------------|----------------|------------|
   |[gtr 3]                                         |
---|-----0------------|-----0----------|---2------3-|
---|---1--1-----------|----0--0--------|--3--3----3-|
---|--2-----2---2-----|--0------0---0--|-2----2---2-|
---|3---------3-------|2----------2----|0------0--0-|
---|------------------|----------------|------------|
---|------------------|----------------|------------|

|Dsus4 D         |D  Dsus4        |  G G G   D  |
      Leave it to me                             
|[gtr 1]                                        |
|5----5----------|----3-----------|--3-3-3---2--|
|-3--3--3---3----|----3-----------|--3-3-3---3--|
|--2------2------|----2-----------|--0-0-0---2--|
|----------------|----0-----------|--0-0-0---0--|
|----------------|----------------|-------------|
|----------------|----------------|-------------|
|[gtr 2]                                        |
|-------------12-|-------------5--|------3---2--|
|----------12^---|12^-12^\p10\---7|------3---3--|
|----------------|---------------7|------0---2--|
|----------------|----------------|------0---0--|
|----------------|----------------|----------0-0|
|----------------|----------------|-------------|
|[Gtr 3]                                        |
|Dsus4        D D|D        Dsus4  |Dsus4        |
|-------------2-2|2------------3--|-3-3---------|
|-------------3-3|3------------3--|-3-3---------|
|-------------2-2|2------------2--|-2-2---------|
|-------------0-0|0------------0--|-0-0---------|
|----------------|----------------|-------------|
|----------------|----------------|-------------|

[gtr 1]
  |A  A/G     A   A/G A  |A      G G G       D      |
My jacket's gonna be  cut slim and checked, maybe a  
  |[gtr 2]                                          |
  |----------------------|-----------3-------2------|
  |----------------------|-----------3-------3------|
  |2---------------2-----|-----------0-------2------|
  |2---------------------|-----------0-------0------|
  |0------------3^-------|--3^\p0--------0-----0----|
  |----------------------|--------------------------|
  |[gtr 3]                                          |
  |----------------------|-----------3-------2------|
  |----------------------|-----------3-------3------|
  |2---2-------2--2--2---|2--2-------0-------2------|
  |2---2-------2--2--2---|2--2-------0-------0------|
  |0-----------0-----0---|0--0----------------------|
  |----3----------3------|--------------------------|

[gtr 1]
|A     A/G  A     A/G  A    |A   G G G    D       |
 Touch of seersucker with an open neck, I ride a   
|[gtr 2]                                          |
|---------------------------|---------------------|
|----2----------------------|---------------------|
|----2-------------2--------|--------------------2|
|----2-------2-----2--------|--2---2--2/2-4-4-2h4-|
|3^----------0-3^-----3^-0--|--0---0--0/0---------|
|---------------------------|3^--3^---------------|
|[gtr 3]                                          |
|---------------------------|--------3---2--------|
|---------------------------|--------3---3--------|
|2---2--2---------2---2-----|2-2-----0---2--------|
|2---2--2---------2---2-----|2-2-----0---0--------|
|0------0-------------0-----|--0------------------|
|----3^-----------3^--------|3^-------------------|

[gtr 1]
|A    A/G A     A/G A|A      G G G   D        |
 G.S. scooter with my hair cut neat, I wear my 
|[gtr 2]                                      |
|------5-----5-----5-|--5---5-----------------|
|--------------------|------------------------|
|~---4^----4^----4^--|4^--4^------4^\-4-2--2--|
|--------------------|-------------------4----|
|--0-----------------|------------------------|
|--------------------|------------------------|
|[gtr 3]                                      |
|--------------------|-------3-3-3----2-------|
|--------------------|-------3-3-3----3-------|
|2--2---2-2-----2--2-|----2--0-0-0----2-------|
|2--2---2-2-----2--2-|----2--0-0-0----0-------|
|0------0-0--------0-|----0-------------------|
|---3^----------3^---|0-3^--------------------|

[gtr 1]
|A   A/G A  A/G  A  |A                    |
 Wartime coat in the wind and sleet.       
|[gtr 2]                                   
|-------------------|---------------------|
|---x---------------|---------------------|
|2--x---------2----2|----2--------x-------|
|2--x-x-------2-x--2|x---2-x------x-------|
|0--0-x--0----0-x--0|x---0-x------0-------|
|-----3---------3---|3-----3---3^-----5\--|
|[gtr 3]                                   
|-------------------|---------------------|
|-------------------|---------------------|
|2---2-2----------2-|---------------------|
|2---2-2----------2-|---------------------|
|0---0-0----------0-|---------------------|
|--3^---------------|---------------------|

|Cadd9        |G/B        |Am               |Am          |
     I see her dance               across the ballroom    
|[gtr 1]                                                 |
|------3------|----0------|----0------------|---0-0------|
|----3---3----|---3-3-----|---1--1----------|--1-1-------|
|--0--------0-|--0---0---0|--2----2--2------|-2-----2----|
|---------2---|-------0h2-|--------2--------|---------2--|
|3------------|2----------|0----------------|0-----------|
|-------------|-----------|-----------------|------------|
|[gtr 2]                                                 |
|-------------|-----------|-----------------|------------|
|<5-----------|-<8-<10----|<10---<15-<13-<10|------------|
|<0-----------|-----------|-----------------|------------|
|-------------|-----------|-----------------|------------|
|-------------|-----------|-----------------|------------|
|-------------|-----------|-----------------|------------|
|[gtr 3]                                                 |
|------0------|----0------|----0------------|---0--------|
|----3---3----|---3-3-----|---1--1----------|--1-1-------|
|--0------0-0-|--0---0--0-|--2----2--2------|-2---2---2--|
|----------2--|--------0--|--------2--------|-------2----|
|3------------|2----------|0----------------|0-----------|
|-------------|-----------|-----------------|------------|

|Fmaj7             |Em              |D          D|D                  |
 U.V. lights making starshine on her smile.                           
|[gtr 1]                                                             |
|-----0------------|-----0----------|----5----5--|5-----5------------|
|---1--1-----------|----0--0--------|-------3---3|----3-------3------|
|--2-----2---2-----|--0------0---0--|--2--2----2-|--2-------2---2----|
|3---------3-------|2----------2----|0-----------|--------0----------|
|------------------|----------------|------------|-------------------|
|------------------|----------------|------------|-------------------|
|[gtr 2]                                                             |
|------------------|----------------|---------10-|-----------10------|
|----<13p10--------|------<10-------|---------10-|-----------10------|
|------------------|----------------|-------9^\--|-----------7-------|
|------------------|----------------|------------|7-----9----7-------|
|------------------|----------------|------------|-------------------|
|------------------|----------------|------------|-------------------|
|[gtr 3]                                   D5  D   Dsus2 D           |
|-----0------------|-----0----------|------3h5-2-|---0---2-----------|
|---1--1-----------|----0--0--------|------3---3-|---3---3-----------|
|--2-----2---2-----|--0------0---0--|------2---2-|---2---2-----------|
|3---------3-------|2----------2----|0-----0---0-|---0---0-----------|
|------------------|----------------|------------|-------------------|
|------------------|----------------|------------|-------------------|

|Cadd9         |G/B            |Am          |Am             |
       I am the Face,             she has to know me,    (I'm)
|[gtr 1]                                                    |
|-----3--------|------0--0-----|----0-0-----|----0----------|
|---3---3------|----3--3---3---|----1--1----|---1--1--------|
|-0--------0---|--0----------2-|--2-----2---|--2----2-2-----|
|--------2-----|---------------|-2-------2--|-2------2------|
|3-------------|2--------------|0-----------|0--------------|
|--------------|---------------|------------|---------------|
|[gtr 2]                                                    |
|--------------|---------------|------------|---------------|
|--------------|---------------|------------|---------------|
|<14----<12----|<9----<7------<|2----<9-----|------<9-<7-<5-|
|--------------|---------------|------------|---------------|
|--------------|---------------|------------|---------------|
|--------------|---------------|------------|---------------|
|[gtr 3]                                                    |
|-----0--------|------0--------|----0-------|----0----------|
|---3---3------|----3--3-------|---1--1-----|---1--1--------|
|-0-------0---0|--0------0---0-|--2----2-2--|--2----2-------|
|-----------2--|-----------0---|--------2---|--------2------|
|3-------------|2--------------|0-----------|0--------0-----|
|--------------|---------------|------------|---------------|

   |Fmaj7                 |Em              |D              D|
I'm dressed up better than anyone  within a mile.            
   |[gtr 1]                                                 |
   |-----0----------------|-----0----------|2---------------|
   |---1--1---------------|----0--0--------|3---------------|
   |--2-----2---2---------|--0------0---0--|2---------------|
   |3---------3-----------|2----------2----|0---------------|
   |----------------------|----------------|----------------|
   |----------------------|----------------|----------------|
   |[gtr 2]                                                 |
   |----------------------|----------------|----------------|
   |----------------------|----------------|----------------|
   |----|--<12>---8---8---|
   |7-------------<12>--|-<12>----7---7---|
   |5---------------<12>|<12>-----5---5---|
   |5-------------------|---------5---5---|
   |--------------------|-----------8---8-|
   |[guitar 2]                             
   |10--10------8--8----|7---7----8---8---|
   |12--12------10-10---|8---8----6---6---|
   |12--12------10-10---|9---9----5---5---|
   |5---5-------5--5----|5---5----5---5---|
   |--------------------|-----------------|
   |--------------------|-----------------|

|C          F          | C7no3 F       |G         F/G       |Em/G      F/Gii 
 Let me get back to the sea             Let me be stormy and let me be calm  
|[guitar 1]                                                                  
|----------------------|--8------------|7\/----------------7|7---------------
|----------------------|--8---------8--|8\/~---------------8|8---------------
|7^^---\5---7^\5-5h7p5-|5-5---------5-5|7\/~---------------7|7---------------
|--------7-------------|--5---------5-5|5\/~---------------5|5---------------
|----------------------|--------------5|5\/~---------------5|5---------------
|----------------------|---------------|--------------------|----------------
|[^^=bend whole note]                  |                                     
|[guitar 2]                            |                                     
|8---------------8-x-8-|-8-8--------8--|10--10----8---8-----|-7---7----8-----
|5-------------6-6-x-6-|-8-8-------8---|12--12----10--10----|-8---8----6-----
|5-------------5-5-x-5-|-5-5------5----|12--12----10--10----|-9---9----5-----
|5-------------7-------|-8-8-----8-----|5---5-----5---5-----|-5---5----5-----
|----------------------|---------------|--------------------|----------------
|----------------------|---------------|--------------------|----------------
                                [rake]

       |C          |F      |C7(no3) |F        |C           |
Let the tide in and set me free         set me free         
[guitar 1]                                                 |
----8/8|8-------8/8|8---8/8|8--8-8/8|8-----8/8|8\/~------13|
----8/8|8-------6/6|6---8/8|8----6/6|6-----8/8|8\/~---13/13|
-5--5/5|5-------5/5|5---5/5|5----5/5|5-----5/5|5\/~---10/10|
----5/5|5-------7/7|7---8/8|8----7/7|7-----8/8|8\/~---10/10|
-------|-----------|-------|--------|---------|------------|
-------|8----------|-------|--------|---------|------------|
[guitar 2]                                                 |
-------|8----------|8------|8-------|8--------|8-----------|
-------|5----------|6------|8-------|6--------|5-----------|
-------|5----------|5------|5-------|5--------|5-----------|
-------|5----------|7------|8-------|7--------|5-----------|
-------|-----------|-------|--------|---------|------------|
-------|8----------|-------|--------|---------|8-----------|

|F           |C7(no3)   |F          |C             |F             |
       set me free           I wanna drown                 in cold 
|[guitar 1]                                                       |
|------------|----------|-----------|--------------|--------------|
|13-----13/13|13--------|<17>-------|--------------|--------------|
|10-----12/12|12----<17>|----[17*]--|--<17---<12--<|7^\-<5--------|
|10-----14/14|14--------|-----------|--------------|--------------|
|------------|----------|-----------|--------------|--------------|
|------------|----------|-----------|--------------|--------------|
|                            [*fbk tone][vol. swells; w/pedal]    |
|[guitar 2]                                                       |
|8-----------|8---------|8----------|8-------------|8-------------|
|6-----------|8---------|6----------|5-------------|6-------------|
|5-----------|5---------|5----------|5-------------|5-------------|
|7-----------|8---------|7----------|5-------------|7-------------|
|------------|----------|-----------|--------------|--------------|
|------------|----------|-----------|--------------|--------------|

|C       F/C   |C7     F/C    |C    F/C   |C7              F/C               |
 Water                                                                        
[repeat piano intro]                                                         |
|[guitar 1]                                                                  |
|--------------|--------------|-----------|----------------------------------|
|--------------|--------------|-----------|----------------------------------|
|--<17---<12--<|7^\-<5-<5-----|5/5/5/5/5/5/5/5/5/5/5/5/5/5/5/5/5/5/5/5/5/5---|
|--------------|--------------|-----------|----------------------------------|
|--------------|--------------|-----------|----------------------------------|
|--------------|--------------|-----------|----------------------------------|
|[guitar 2]                                                                  |
|8-------------|--------------|-----------|----------------------------------|
|5-------------|--------------|-----------|10^/^10-^10/^10\10/10-10/10-10-8--|
|5-------------|--------------|-----------|--------------------------------7^|
|5-------------|--------------|-----------|----------------------------------|
|--------------|--------------|-----------|----------------------------------|
|--------------|--------------|-----------|----------------------------------|

|C             F/C        |C7           F/C        |
|[guitar 1]                                        |
|---8/8/x/8--x-8/x/8/8-x/x|--------8--x---8--/8-x/x|
|---8/8/x/8--x-8/x/8/8-x/x|x-8/8/8-8--x-8/8/8/8-x/x|
|---5/5/x/5--x-5/x/5/5-x/x|x-5/5/5-5--x-5/5/5/5-x/x|
|---5/5/x/5--x-5/x/5/5-x/x|x-5/5/5-5--x-5/5/5/5-x/x|
|-------------------------|------------------------|
|-------------------------|------------------------|
|[guitar 2]                                        |
|--------8-----8/8---8/8--|8-------8------8---8/8--|
|--------8-x-x-5/6---5/6p5|8-------8------6---5/6--|
|--------5-x-x-5/5---5/5--|5-------5----5-5---5/5--|
|10------5-x-x-5/7---5/7p5|8-------8----7-7---5/7--|
|-------------------------|------------------------|
|--------8----------------|------------------------|

|C          F/C        |C7         F/C        |
|[guitar 1]                                   |
|------8------8---8----|------8------8---8----|
|x-8/x/8-xx-x/8/x/8-x/x|x-8/x/8-xx-x/8/x/8-x/x|
|x-5/x/5-xx-x/5/x/5-x/x|x-5/x/5-xx-x/5/x/5-x/x|
|x-5/x/5-xx-x/5/x/5-x/x|x-5/x/5-xx-x/5/x/5-x/x|
|----------------------|----------------------|
|----------------------|----------------------|
|[guitar 2]                                   |
|8-----8----8-----8/8--|8-----8----8---8-8/8--|
|8-----8----6-----6/6--|8-----8----6---6-6/5--|
|5-----5----5-----5/5--|5-----5----5---5-5/5--|
|5-----8----7-----7/7--|8-----5----7---7-7/5--|
|----------------------|----------------------|
|8-----8---------------|----------------------|

|C          F/C        |C7         F/C        |
|[guitar 1]                                   |
|--8---8------8---8----|------8------8---8----|
|x-8/8/8-xx-x/8/8/8-x/x|x-8/x/8-xx-x/8/8/8-x/x|
|x-5/5/5-xx-x/5/5/5-x/x|x-5/x/5-xx-x/5/5/5-x/x|
|x-5/5/5-xx-x/5/5/5-x/x|x-5/x/5-xx-x/5/5/5-x/x|
|----------------------|----------------------|
|----------------------|----------------------|
|[guitar 2]                                   |
|8-----8------------8--|8-----8----8------8/8-|
|8-----8----8\6-----8--|6-----5----6------6/6-|
|5-----5------------5--|5-----5----5------5/5-|
|8-----8------------8--|7-----5----7------7/7-|
|----------------------|----------------------|
|----------------------|8-----8---------------|

|C          F/C        |C7          F/C        |
|[guitar 1]                                    |
|--8---8------8---8----|------------8-8/8-5----|
|x-8/8/8-xx-x/8/x/8-x/x|x-8/x---x/x-8/8/8-8----|
|x-5/5/5-xx-x/5/x/5-x/x|x-5/x/5-x/x-5/5/5-5----|
|x-5/5/5-xx-x/5/x/5-x/x|x-5/x/5-x/5------------|
|----------------------|-----------------------|
|----------------------|-----------------------|
|[guitar 2]                                    |
|8------x-x-8-----8/8--|8-----8-----8-8--------|
|8------x-x-6-----6/6-/|8-----8-----6-6------5-|
|5------x-x-5-----5/5--|5-----5-----5-5------5-|
|8------x-x-7-----7/7-/|8-----8-----7-7------5-|
|----------------------|-----------------------|
|----------------------|-----------------------|

                                 x3
||:  C7(no3) F    |C       F    :|| C7(no3)  F    |C            F        |
||[guitar 1]                     ||                                      |
||-----8-------8--|--8-------8---||----8-------8--|----------------------|
||----8-8-----6-6-|-5-5-----6-6--||---8-8-----6-6-|----------------------|
||.------5-------5|----5-------5.||------5-------5|8^\p5--5--------------|
||.7/8-----5h7----|5-----5h7----.||7/8-----5h7----|-----10-8p5--5--------|
||----------------|--------------||---------------|-----------10-------10|
||----------------|--------------||---------------|--------------8-11^-8-|
||[guitar 2]                     ||                                      |
||-----8-------8--|--8-------8---||----8-------8--|--8-------------------|
||----8-8-----6-6-|-5-5-----6-6--||---8-8-----6-6-|-5-5----------------5-|
||.------5-------5|----5-------5.||------5-------5|----5--------5---5--5-|
||.7/8-----5h7----|5-----5h7----.||7/8-----5h7----|5-----5------7---7--5-|
||----------------|--------------||---------------|----------------------|
||----------------|--------------||---------------|----------------------|

|C        F/C        |C7          F/C         |
|[guitar 1]                                    
|--------------------|------------------------|
|--------------------|-----------------6-6-8-6|
|--------------------|-----------------5-5-5-5|
|--------------------|-----------------7-7-7-7|
|10------------------|------------5-----------|
|8-8--8-10^-10^-10^\-|10-10\8-5-8----8--------|
|[guitar 2]                                   |
|--8------x/8---x/8--|8-8-8-------8/8/8---8---|
|8-8------x/6---x/6--|8-6-6-------6/6/6---6---|
|5-5------x/5---x/5--|5-5-5-------5/5/5---5---|
|5-5------x/7---x/7--|8-7-7-------7/7/7---7---|
|--------------------|------------------------|
|--------------------|------------------------|

|C        F/C       |C7    F/C                 |
|[guitar 1]                                    |
|----8--------8---|----------------------------|
|---8-8------6-6--|----------------------------|
|------5--------5-|7^\p5-7p5-5-----------------|
|7/8------5h7-----|-----7-----7/8-8-8-8-8-8/8/8|
|-----------------|----------------------------|
|-----------------|----------------------------|
|[guitar 2]                                    |
|-----8-----8---8-|8----8-8-----8/8/8/8--8-----|
|8--x-8---6/6-6/6-|8--x-8-8-----6/6/6/6--5-----|
|5--x-5---5/5-5/5-|5--x-5-5-----5/5/5/5--5-----|
|5--x-5---7/7-7/7-|8--x-8-5-----7/7/7/7--5-----|
|-----------------|----------------------------|
|-----------------|----------------------------|

| C                        F/C      |C7           F/C            |
|[guitar 1]                                                      |
|-----------------------------------|----------------------------|
|-----------------------------------|-----------8p5---------8p5--|
|--------------------------8~---8~--|--8--8~p5-----5--8~p5-----5-|
|8h10-10-10-10-10/10/10-10---10---10|---10----10----------10-----|
|-----------------------------------|----------------------------|
|-----------------------------------|----------------------------|
|[guitar 2]                                                      |
|----8------------------------8-----|--8------------8------------|
|---8-8----------------------6-6----|-5-5----------6-6-----------|
|------5------------------------5---|----5------------5----------|
|7/8----------------------5h7-------|5----------5h7--------------|
|-----------------------------------|----------------------------|
|-----------------------------------|----------------------------|

|C               F/C        |C7           F/C             |
|[guitar 1]                                               |
|--------5------------------|--8p5------------------------|
|------10--10-5--------8p5--|-------8p5--------8^-8^------|
|8~p5------------8~p5-----9p|5----5----5-8^p5-5-----------|
|----10---10---10----10-----|-------------------------5-10|
|---------------------------|-----------------------10----|
|---------------------------|-----------------------------|
|[guitar 2]                                               |
|----8------------------8---|--8--------------------------|
|---8-8----------------6-6--|-5-5-----------6-6-----------|
|------5------------------5-|----5----------5-5--5--------|
|7/8----------------5h7-----|5----------5h7------7--------|
|---------------------------|-----------------------------|
|---------------------------|-----------------------------|

|C                 F/C                 |C7           F/C                     |
[guitar 1]                                                                   |
|--------------------------------------|--5--5--5--5--5--5--5--5--5--5--5--5-|
|------------8p5----8p5-----8p5----8p5-|--5--5--5--5--5--5--5--5--5--5--5--5-|
|-----8p5--------9------9-------9------|9-12-12-12-12-12-12-12-12-12-12-12-12|
|10------10----------------------------|-------------------------------------|
|--------------------------------------|-------------------------------------|
|--------------------------------------|-------------------------------------|
|[guitar 2]                                                                  |
|--------------------------------------|-------------------------------------|
|10^-^10-10^^-^^10-^10\^10/^10/^10-----|-------------------------------------|
|---------------------------------8^---|---------------10^\p8-10-------------|
|-----------------------------------10-|---8-10/10-10------------------------|
|--------------------------------------|-------------------------------------|
|--------------------------------------|-------------------------------------|
         [^^ = bend whole note]
         [^10 = prebend]

|C                 F/C             ||:C7           F/C                      :||
[guitar 1]                         ||                                        ||
|8-5-8---8/8--x-8-x-8-x-8-x--------||-8-x-8-x-8-x-8-x-8-x-8-x-8-x-8-x--------||
|8-5-8-8-8/8--x-8-x-8-x-8-x--------||-8-x-8-x-8-x-8-x-8-x-8-x-8-x-8-x--------||
|5-5-5-5-5/5--x-5-x-5-x-5-x--------||.5-x-5-x-5-x-5-x-5-x-5-x-5-x-5-x-------.||
|----------------------------------||.--------------------------------------.||
|----------------------------------||----------------------------------------||
|----------------------------------||----------------------------------------||
|[guitar 2]                        ||                                        ||
|----------------------------------||----------------------------------------||
|----------------------------------||----------------------------------------||
|8~--------------------------------||-----8-9-8-9-9^/^9/^9/^9-9^^/^^9/^^9/^^9||
|--10---10/10-10/10-10/10-10/10-10/||10-10-----------------------------------||
|----------------------------------||----------------------------------------||
|----------------------------------||----------------------------------------||
                                                  [^9 = prebend]
                                                  [^^9 = prebend whole note]

|C            F/C        |C7           F/C              |
[guitar 1]                                              |
|----------------------|--------------------------------|
|----------------------|--------------------------------|
|------------%---------|------------------%-------------|
|----------------------|--------------------------------|
|----------------------|--------------------------------|
|----------------------|--------------------------------|
|[guitar 2]                                             |
|----------------------|--------------------------------|
|-------------8--8/8-8-|8-8/8-8-10/10-11/11/11-10/10-x--|
|^^9\9~--------10------|-----------------------------x-8|
|--------10------------|--------------------------------|
|----------------------|--------------------------------|
|----------------------|--------------------------------|

|C          F/C        |C7          F/C         |
|[guitar 1]                                     |
|----------------------|------------------------|
|----------------------|------------------------|
|---------%------------|------------%-----------|
|----------------------|------------------------|
|----------------------|------------------------|
|----------------------|------------------------|
|[guitar 2]                                     |
|------------8-----8---|--8-----8-----8-----8---|
|----------x-8-x---8-x-|--8-x---8-x---8-x---8-x-|
|8-8p5-----x-5-x-5-5-x-|5-5-x-5-5-x-5-5-x-5-5-x-|
|-----8-10-x---x-5---x-|5---x-5---x-5---x-5---x-|
|----------------------|------------------------|
|----------------------|------------------------|


================================================================================
#----------------------------------PLEASE NOTE---------------------------------#
#This file is the author's own work and represents their interpretation of the #
#song. You may only use this file for private study, scholarship, or research. #
#------------------------------------------------------------------------------#

Bell Boy
By The Who, Written by Pete Townshend, 1973 
©1973 Fabulous Music Ltd.

==============
transcribed by         04-03-1999
litgo@aol.com     rev1 06-27-2003
==============

Electric Gtr 1&2: Capo 1, dropped-D tuning (tonality w/capo: Eb Bb Eb Ab C F)
Acoustics 1&2: Capo 1, standard tuning (tonality w/capo: F Bb Eb Ab C F)

Basic chord shapes for acoustic:
Eb5                  x11346             Bb                   x13366 and x13331
Eb                   xx1343             F7/A                 xx1211
Ab/Eb               (4)x1144            Abm6                 xx1331
Db/Eb                x43121 & x43124    Fmaj7                xx3555
Ab/C (Eb bass)*      x31114             Fii                  xx3565
F7sus4 = Bbsus4/F    x8886x             Fmaj7ii              xx3555
Eb7sus4 = Absus4/Eb  x6664x             F7ii                 xx3545
Ab6                  xx6541             Abii                 xx6544
Cm7                  x35343             F                    133533
Dm                   x57765             Ab                   4x1144
C                    x355xx             Db                   x466xx
Ebsus2               xx1341             
[*no Ab bass, so default to C bottom; bass plays Eb]


[intro]

[synth]                                               
      |Eb     Cm|Db/Eb   Ab/Eb|Eb       Ab/Eb|Db/Eb  |
[electric]                                            
    //|Eb5      |             |              |    / /|
------|---------|-------------|--------------|----6/6|
---4/4|---------|(5)----------|(5)-----------|----4/4|
---3/3|3--------|(3)----------|(3)-----------|----3/3|
---1/1|1--------|(1)----------|(1)-----------|----1/1|
---1/1|1--------|(1)----------|(1)-----------|----1/1|
---1/1|1--------|(1)*---------|(1)*----------|----1/1|
           * = feedback


[synth]                                         
|Eb     Cm|Db/Eb   Ab/Eb|Eb       Ab/Eb|Db/Eb  |
|Eb5      |             |              |       |
|---------|-------------|--------------|-------|
|---------|(5)----------|(5)-----------|-------|
|3--------|(3)----------|(3)-----------|-------|
|1--------|(1)----------|(1)-----------|-------|
|1--------|(1)----------|(1)-----------|-------|
|1--------|(1)*---------|(1)*----------|-------|


[verse; acoustic in; electric out]
[synth]                                          
||Eb               Ab/Eb  |Db/Eb            Ab/C|
||                        |                     |
A beach is a place where a man can feel he's the 
||[acoustic]                                    |
||3-----3-----------4---4-|1----1-------1----4--|
||4-----4-----------4---4-|2----2-------2----1--|
||3-----3-----------1---1-|1----1-------1----1--|
||1-----1-----------1---1-|3----3-------3----1--|
||------------------------|4----4-------4---(3)-|
||------------------4---4-|------------------4--|


[synth]                                |
|Eb        Ab/Eb |Db/Eb           Ab/Eb|
 Only soul in the world that's real     
[acoustic]                             |
|3-----3----4---1|1----1-----------1-4-|
|4-----4----4---2|2----2-----------2-1-|
|3-----3----1---1|1----1-----------1-1-|
|1-----1----1---3|3----3-----------3-1-|
|---------------4|4----4-----------4-x-|
|----------------|-------------------4-|


|Eb     Ab/Eb|Db/Eb      Ab/Eb|Eb     Ab/Eb|Db/Eb       Ab/C      ||
[acoustic]                                                        ||
|3--3----4--1|1--1--------1-4-|3--3----4--1|1--1--------1-4----3/3||
|4--4----4--2|2--2--------2-1-|4--4----4--2|2--2--------2-1----4/4||
|3--3----1--1|1--1--------1-1-|3--3----1--1|1--1--------1-1----3/3||
|1--1----1--3|3--3--------3-1-|1--1----1--3|3--3--------3-1----1/1||
|-----------4|4--4--------4-x-|-----------4|4--4--------4-x-------||
|------------|--------------4-|------------|--------------4-------||

But I see a face coming through the haze
I remember him from those crazy days, crazy days, crazy days


[electric in]
     |Cm7                         Ab     |Cm7               F   |
            Ain't you the guy who used to    set the paces       
[electric]                                                      |
     |C5                                 |                      |
-----|-----------------------------------|----------------------|
-----|-----------------------------------|----------------------|
-----|-----------------------------------|----------------------|
10-10|-10--------------------------------|-----------------10-10|
-----|-----------------------------------|----------------------|
10-10|-10--------------------------------|-----------------10-10|
[acoustic]                                                      |
     |Cm7                         Ab     |Cm7               F   |
    ||-3--3-----------------------4------|3--3---------1/1-1--1-||
    ||-4--4-----------------------4------|4--4---------1/1-1--1-||
    ||.3--3-----------------------1------|3--3---------2/2-2--2.||
    ||.5--5-----------------------1------|5--5---------3/3-3--3.||
    ||-3--3------------------------------|3--3------------------||
    ||----------------------------4------|----------------------||


|Cm7                Ab  |Cm7               F|
Riding up in front of a hundred faces        
[electric]                                  |
|C5                     |                   |
|-----------------------|-------------------|
|-----------------------|-------------------|
|-----------------------|-------------------|
|10---------------------|--------------10-10|
|-----------------------|-------------------|
|10---------------------|--------------10-10|
[acoustic]                                  |
|:        %             |          %       :|


|Cm7               Ab         |Cm7          F  |
   I don't suppose you would remember me   but  
[electric]                                     |
|C5                           |              //|
|-----------------------------|----------------|
|-----------------------------|----------------|
|-----------------------------|----------------|
|10---------------------------|-----------10-10|
|-----------------------------|----------------|
|10---------------------------|-----------10-10|
[acoustic]                                     |
|:        %                   |       %       :|


|Cm7                  Ab      |Cm7             |
I used to follow you back in '63                
[electric]                                     |
|C5                           |                |
|-----------------------------|----------------|
|-----------------------------|----------------|
|-----------------------------|----------------|
|10---------------------------|----------------|
|-----------------------------|---------xxxxxxx|
|10---------------------------|---------xxxxxxx|
[acoustic]                                     |
|:        %                   |Cm7            :|


||:F    Dm Eb|     Ab   Bb|      C  Db|       Eb    :||
[electric]                                           ||
||--------3/3|-----4-----6|-----------|--------------||
||-1----6-4/4|-----4-6/6-6|-----------|--------------||
||-2----7-3/3|-----1-3/3-3|------5-6/6|-------8------||
||-3----7-1/1|-----1-3/3-3|------5-6/6|-------8------||
||-3----5----|-----3-1/1-1|------3-4/4|-------6------||
||-----------|------------|-----------|--------------||
[acoustic]                                           ||
||:F    Dm Eb|     Ab   Bb|      C  Db|       Eb    :||
||-1--------3|-----4-----6|--6--------|--------------||
||-1----6---4|-----4-----6|--6--------|-----------1/1||
||-2----7---3|-----1-----3|--3---5---6|--6-6--8---2/2||
||-3----7---1|-----1-----3|--3---5---6|--6-6--8---3/3||
||-3----5----|-----3-----1|--1---3---4|--4-4--6---3/3||
||-1---------|------------|-----------|--------------|| 


||:F   Dm  Eb|     Ab Bb|      C  Db|     Eb      :||  
[electric]                                         ||  
||----------3|-----4---6|-----------|--------------||--
||------6---4|-----4-6-6|-----------|--------------||--
||-10---7---3|-----1-3-3|------5-6-6|-----8--------||--
||-10---7---1|-----1-3-3|------5-6-6|-----8--------||3-
||-8----5----|-----3-1-1|------3-4-4|-----6--------||3-
||-----------|----------|-----------|--------------||3-
[acoustic]                                         ||
||-1--1-----3|--3--4---6|--6--------|--------------||
||-1--1-6---4|--4--4---6|--6--------|-----------1/1||
||-2--2-7---3|--3--1---3|--3---5---6|--6-6--8---2/2||
||-3--3-7---1|--1--1---3|--3---5---6|--6-6--8---3/3||
||-3--3-5----|-----3---1|--1---3---4|--4-4--6---3/3||
||-1--1------|----------|-----------|--------------|| 

[electric out; acoustic only, repeat pattern with fill variations]
    |F                      Dm    Eb |
[spoken]
I've got a good job and I'm newly born

|   Ab        Bb                  |   C  Db |    Eb
    You should see me dressed up in my uniform

Eb     |F              Dm    Eb |         Ab  Bb 
I work in an hotel, all gilt and flash
 |                C         Db |                  Eb
Remember the gaff where the doors we smashed?


|(Bb)  F7/A Bb|                        |
|             |                        |
  Bell Boy,  I got to get running now
||-----1----1-|------------------------||
||-----1----3-|------------------------||
|.-----2----3-|------------------------.|
|.-----1----3-|------------------------.|
||------------|------------------------||
||------------|------------------------||

  Bell Boy,  Keep my lip buttoned down
  Bell Boy,  Carry this baggage out
  Bell Boy,  Always running at someone's bleedin'


|F7sus4  |Bb                 |Eb7sus4 |Ab6   |
 Heel          You know how I feel            
|[acoustic]                                  |
|--------|-------------------|--------|1-----|
|6-------|6------------------|4-------|4-----|
|8-------|7------------------|6-------|5-----|
|8-------|8------------------|6-------|6-----|
|8-------|8------------------|6-------|6-----|
|--------|-------------------|--------|------|


|Abm6      |                    |Ebsus2   |         |         |         |
     Always running at someone's heel                                    
[acoustic]                                                              |
|1---1-----|1----------1--------|1----1---|1----1---|1----1---|1----1---|
|4---4-----|4----------4--------|4----4---|4----4---|4----4---|4----4---|
|4---4-----|4----------4--------|3----3---|3----3---|3----3---|3----3---|
|1---1-----|1----------1--------|1----1---|1----1---|1----1---|1----1--3|
|----------|--------------------|---------|---------|---------|---------|
|----------|--------------------|---------|---------|---------|---------|


[3/2]
|Fmaj7                     Cmaj7       |D                |
|                                      |                 |
       Some nights I still sleep on the beach,            
[acoustic; doubled by two guitars]                       |
|5---------------5---------------------|5------5----5----|
|5---------------5---------5-----------|7------7----7----|
|5---------------5---------4-----------|7------7----7----|
|----------------3---------5-----------|7------7----7----|
|--------------------------3---------5-|-------5--5------|
|--------------------------------------|---------------5-|


|Fmaj7              Cmaj7      |D           D6   |
|                              |                 |
    Remember when stars were in reach             
[acoustic; doubled by two guitars]               |
|5---------5-------------------|5------5----7----|
|5---------5------5------------|7------7----7----|
|5---------5------4------------|7------7----7----|
|3---------3------5------------|7------7----7----|
|---------------3------------5-|-------5--5------|
|------------------------------|-----------------|


|Fii             Fmaj7ii    |F7ii              |
|                           |                  |
     I wander in early to work                  
[acoustic; doubled by two guitars]             |
|5--5----5----5--5-----5----|5--5--5--5--5--5--|
|6--6----6----6--5-----5----|4--4--4--4--4--4--|
|5--5----5----5--5-----5----|5--5--5--5--5--5--|
|3--3----3----3--3-----3----|3--3--3--3--3--3--|
|---------------------------|------------------|
|---------------------------|------------------|


|Abii                                  |Eb                Ebsus2|
      Spend my day lickin' boots for my perks                    
[acoustic 1]                                                    |
|4----4--------4-------4-----4-------4-|3---3---3---3---3---3--1|
|4----4--------4-------4-----4-------4-|4---4---4---4---4---4--4|
|5----5--------5-------5-----5-------5-|3---3---3---3---3---3--3|
|6----6--------6-------6-----6-------6-|1---1---1---1---1---1--1|
|--------------------------------------|------------------------|
|--------------------------------------|------------------------|
                                      ||[acoustic 2; palm mute] ||
                                      ||------------------------||
                                      ||4-4-4-4-4-4-4-4-4-4-4-4-||
                                      |.3-3-3-3-3-3-3-3-3-3-3-3-.|
                                      |.1-1-1-1-1-1-1-1-1-1-1-1-.|
                                      ||------------------------||
                                      ||------------------------||


                        [4/4]           [drums in]        
|Eb               Ebsus2|Eb             |Eb       Ebsus2 |
                                                    (A...)
|[acoustic 1]                                            |
|3---3---3---3-1-3---3-1|3---3---3---3-1|3---3---3---3---|
|4---4---4---4-4-4---4-4|4---4---4---4-4|4---4---4---4---|
|3---3---3---3-3-3---3-3|3---3---3---3-3|3---3---3---3---|
|1---1---1---1-1-1---1-1|1---1---1---1-1|1---1---1---1---|
|-----------------------|---------------|----------------|
|-----------------------|---------------|----------------|
|[acoustic 2; w/palm mute]                               ||
||:      %              |         %     |         %     :||


[repeat verse; acoustics out; electric in]
[synth]                                              |
      |Eb               Ab/Eb  |Db/Eb            Ab/C|
     A beach is a place where a man can feel he's the 
[electric]                                           |
    //|Eb5                     |                    /|
------|6-----------------------|--------------------6|
------|4-----------------------|(5)-----------------4|
---3/3|3-----------------------|(3)-----------------3|
---1/1|1-----------------------|(1)-----------------1|
---1/1|1-----------------------|(1)-----------------1|
------|1-----------------------|(1)-----------------1|


[synth]                                |
|Eb        Ab/Eb |Db/Eb           Ab/Eb|
 Only soul in the world that's real     
[electric]                             |
|Eb5             |                     |
|----------------|---------------------|
|----------------|--------------------1|
|3---------------|--------------------1|
|1---------------|--------------------1|
|1---------------|---------------------|
|1---------------|---------------------|


[synth]                                                                      
||Eb               Ab/Eb|Db/Eb            Ab/Eb||Eb       Ab/Eb|Db/Eb    Ab/C|
||[electric]                                                                 |
||Eb5                   |                      ||              |             |
||----------------------|----------------------||--------------|-------------|
||5---------------------|(5)*------------------||(5)-----------|(5)----------|
||3---------------------|(3)-------------------||(3)-----------|(3)----------|
||1---------------------|(1)-------------------||(1)-----------|(1)----------|
||1---------------------|(1)-------------------||(1)-----------|(1)----------|
||1---------------------|(1)-------------------||(1)-----------|(1)----------|
||                          *feedback                                        |
||:[synth; arr for gtr]                       :||                            |
||--------16-18-16-18-16|--------16-18-16-18-16||--------------|-------------|
||20-18-20--------------|20-16-20--------------||--------------|-------------|
||.---------------------|---------------------.||-------%------|------%------|
||.---------------------|---------------------.||--------------|-------------|
||----------------------|----------------------||--------------|-------------|
||----------------------|----------------------||--------------|-------------|


[acoustic in]
[synth]                                                                     
|Eb         Ab/Eb|Db/Eb        Ab/Eb|Eb            Ab/Eb|Db/Eb       Ab/C  |
|[electric 1]                                                              |
|Eb5             |                  |                   |                  |
|----------------|------------------|-------------------|------------------|
|(5)-------------|------------------|-------------------|------------------|
|(3)-------------|------------------|-------------------|------------------|
|(1)-------------|------------------|-------------------|------------------|
|(1)-------------|------------------|-------------------|------------------|
|(1)-------------|------------------|-------------------|------------------|
|[electric 2]                                                              |
|----------------|------------------|-------------------|------------------|
|-------------11-|--11^-11^11^11^11^|11-11^--11^-11^11^-|11^11^11^-11^11^--|
|-------------12-|--12^-12^12^12^12^|12-12^--12^-12^12^-|12^12^12^-12^12^--|
|----------------|------------------|13-----------------|13-13-------------|
|----------------|------------------|-------------------|------------------|
|----------------|------------------|-------------------|------------------|
|[acoustic; with variations]                                               |
|3---3-------4--1|1---1---------1-4-|3----3---------4--1|1----1--------1-4-||
|4---4-------4--2|2---2---------2-1-|4----4---------4--2|2----2--------2-1-||
|3---3-------1--1|1---1---------1-1-|3----3---------1--1|1----1--------1-1-||
|1---1-------1--3|3---3---------3-1-|1----1---------1--3|3----3--------3-1-||
|---------------4|4---4---------4-x-|------------------4|4----4--------4-x-||
|----------------|----------------4-|-------------------|----------------4-||


[synth]                                                                  
|Eb         Ab/Eb|Db/Eb             Ab/Eb|Eb       Ab/Eb|Db/Eb    Ab/C  |
                                                                   (But I)
|[electric]                                                              
|Eb5             |                       |              |               |
|----------------|-----------------------|--------------|---------------|
|(5)*------------|-----------------------|--------------|---------------|
|(3)-------------|-----------------------|--------------|---------------|
|(1)-------------|-----------------------|--------------|---------------|
|(1)-------------|-----------------------|--------------|---------------|
|(1)-------------|-----------------------|--------------|---------------|
|[gtr]                                                                  |
|----------------|-----------------------|--------------|11----------11-|
|11^\---------11^|-----11^-11^\-----11---|-----8-8--8---|11---11-11^-11-|
|12^\---------12^|12^--12^-12^\--10-12-10|8----8-10-8---|-----12-12^----|
|----------------|13---------------------|--------------|---------------|
|----------------|-----------------------|--------------|---------------|
|----------------|-----------------------|--------------|---------------|
|[acoustic]                                                             |
|Eb         Ab/Eb|Db/Eb             Ab/Eb|Eb       Ab/Eb|Db/Eb     Ab/C |


     |Eb        Ab/Eb |Db/Eb           Ab/Eb|
But I see a face coming through the haze     
 [electric]                                 |
     |Eb5             |                     |
     |----------------|---------------------|
     |----------------|---------------------|
     |3---------------|(3)------------------|
     |1---------------|(1)-----------------x|
     |1---------------|(1)-----------------x|
     |1---------------|(1)------------------|
[acoustic]                                  |
     |Eb         Ab/Eb|Db/Eb           Ab/C |


   |Eb        Ab/Eb |Db/Eb           Ab/Eb|
I remember him from those crazy days       
 [electric]                                |
   |Eb5             |                     |
   |----------------|---------------------|
   |---5------------|---------------------|
   |---3------------|---------------------|
   |---1------------|------------------x/x|
   |---1------------|------------------x/x|
   |1---------------|------------------1/1|
[acoustic]                                |
   |Eb         Ab/Eb|Db/Eb           Ab/C |


|Eb    Ab/Eb|Db/Eb   Ab/Eb|Eb       Ab/Eb|Db/Eb  Ab/Eb|
 crazy days, crazy days,   crazy days,    crazy days   
|[electric]                                           |
|Eb5        |             |              |            |
|-----------|-------------|--6-----------|------------|
|--5-----4-4|4------------|--5--------4-4|4-----------|
|--3-----1-1|1----------x-|--3--------1-1|1-----------|
|--1-----1-1|1----------x-|--1--------1-1|1------10-10|
|--1--------|-----------x-|--1-----------|------------|
|1----------|-------------|1-------------|-------10-10|
[acoustic]                                            |
|Eb    Ab/Eb|Db/Eb    Ab/C|Eb       Ab/Eb|Db/Eb       |


|Cm7                  Ab        |Cm7            F|
   Ain't you the guy who used to   set the paces  
|[electric]                                      |
|Cm7                            |                |
|-------------------------------|----------------|
|-------------------------------|----------------|
|-------------------------------|----------------|
|10-----------------------------|(10)------------|
|-------------------------------|----------------|
|10-----------------------------|(10)------------|
|[acoustic; as above]                            |
|Cm7                  Ab        |Cm7            F|


|Cm7                Ab  |Cm7               F|
Riding up in front of a hundred faces       
|[electric]                                 |
|Cm7                    |                   |
|-----------------------|-------------------|
|-----------------------|-------------------|
|-----------------------|-------------------|
|9/10-------------------|-------------------|
|-----------------------|------------xxxxxxx|
|9/10-------------------|------------xxxxxxx|
|[acoustic]                                 |
|Cm7                Ab  |Cm7               F|


|Cm7               Ab         |Cm7             F  |
   I don't suppose you would remember me      but  
[electric]                                        |
|Cm7                          |                   |
|-----------------------------|-------------------|
|-----------------------------|-------------------|
|-----------------------------|-------------------|
|10---------------------------|-------------------|
|-----------------------------|---------------1---|
|10---------------------------|---------3--5------|
|[acoustic; as above]                             |
|Cm7               Ab         |Cm7            F   |


|Cm7                  Ab      |Cm7         |
I used to follow you back in '63            
|[electric]                                |
|Cm7                          |            |
|-----------------------------|------------|
|-----------------------------|------------|
|10---------------------------|------------|
|10---------------------------|------------|
|-----------------------------|------------|
|10---------------------------|--------7\--|
|[acoustic]                                |
|Cm7                  Ab      |Cm7         |
|3----3---------------4------3|3--------1/1|
|4----4---------------4------4|4--------1/1|
|3----3---------------1------3|3--------2/2|
|5----5---------------1------5|5--------3/3|
|3----3----------------------3|3--------3/3|
|---------------------4-------|---------1/1|


||:F    Dm Eb|      Ab Bb|      C  Db|       Eb    :||
||[electric]                                        ||
||--------3-3|~----4----6|~----------|--------------||
||-1~---6-4-4|~----4--6-6|~----------|--------------||
||-2~---7-3-3|~----1--3-3|~-----5-6-6|--6----8------||
||-3~---7-1-1|~----1--3-3|~-----5-6-6|--6----8------||
||-3~---5----|-----3--1-1|~-----3-4-4|--4----6------||
||-----------|-----------|-----------|--------------||
||[acoustic]                                        ||
||-1--------3|--3--4----6|--6--------|--------------||
||-1----6---4|--4--4----6|--6--------|-----------1/1||
||-2----7---3|--3--1----3|--3---5---6|--6-6--8---2/2||
||-3----7---1|--1--1----3|--3---5---6|--6-6--8---3/3||
||-3----5----|-----3----1|--1---3---4|--4-4--6---3/3||
||-1---------|-----------|-----------|--------------|| 

||:F  Dm Eb|     Ab Bb|      C  Db|       Eb    :||
||[electric]                                     ||
||--------3|-----4---6|-----------|--------------||---
||------6-4|-----4-6-6|-----------|--------------||---
||------7-3|-----1-3-3|------5-6-6|-------8------||---
||-3----7-1|-----1-3-3|------5-6-6|-------8------||---
||-3----5--|-----3-1-1|------3-4-4|-------6-----x||8~~
||-3-------|----------|-----------|--------------||---
||[acoustic]                                     ||
||-1------3|-----4---6|-----------|--------------||
||-1----6-4|-----4---6|-----------|-----------1/1||
||-2----7-3|-----1---3|------5---6|--6-6--8---2/2||
||-3----7-1|-----1---3|------5---6|--6-6--8---3/3||
||-3----5--|-----3---1|------3---4|--4-4--6---3/3||
||-1-------|----------|-----------|--------------|| 

[electric out; acoustic as above, with fill variations]

People often change but when I look in your eyes
You can learn a lot from a life like mine
The secret to me, it ain't flown up a flag
I carry it behind this bleeding little badge, what says:

Bell Boy, I gotta get running now
Bell Boy, Keep your lip buttoned down
Bell Boy, Carry the bloody baggage out
Bell Boy, Always running at someone's heel,

|F7sus4  |Bb                 |Eb7sus4 |Ab6   |
(heel)         You know how I feel            
[acoustic]                                   |
|--------|-------------------|--------|------|
|6---6---|6--------------6---|4---4---|4-----|
|8---8---|7--------------7---|6---6---|5-----|
|8---8---|8--------------8---|6---6---|6-----|
|8---8--8|-------------------|6---6--6|------|
|--------|-------------------|--------|------|


|Abm6       |           Abm      |
      Always running at someone's 
[acoustic]                       |
|1----1-----|1----------1--------|
|4----4-----|4----------4--------|
|4----4-----|4----------1--------|
|1----1-----|1----------1--------|
|-----------|--------------------|
|-----------|--------------------|

|Ebsus2   |         |        |        |
 Heel..........                        
[electric]                            |
|----1----|---------|--------|--------|
|---4-----|---------|--------|--------|
|--3------|---------|--------|--------|
|-1-------|----<<8>-|(<8>)---|(<8>)>--|
|1--------|---------|--------|--------|
|---------|---------|--------|--------|
|                                      
[acoustic]                            |
|1----1---|1---1----|1---1---|1---1---|
|4----4---|4---4----|4---4---|4---4---|
|3----3---|3---3----|3---3---|3---3---|
|1----1---|1---1----|1---1---|1---1---|
|---------|--------1|--------|-------1|
|---------|---------|--------|--------|

|Ebsus2  |        |        |        |        |        |        |        |        |
|[electric]                                                                      |
|--------|--------|--------|--------|--------|--------|--------|--------|--------|
|--------|--------|--------|--------|--------|--------|--------|--------|--------|
|--------|--------|--------|--------|--------|--------|--------|--------|--------|
|<<8>----|(<8>)->-|--------|--------|--<<8>--|-------<|<8>-\/--|--------|--<<8>--|
|--------|--------|--------|--------|--<<8>--|-------<|<8>-\/--|--------|--------|
|--------|--------|--------|--------|--------|--------|--------|--------|--------|
|[acoustic]                                                                      |
|1---1---|1---1---|1---1---|1---1---|1---1---|1---1---|1---1---|1---1---|1---1---|
|4---4---|4---4---|4---4---|4---4---|4---4---|4---4---|4---4---|4---4---|4---4---|
|3---3---|3---3---|3---3---|3---3---|3---3---|3---3---|3---3---|3---3---|3---3---|
|1---1---|1---1---|1---1---|1---1---|1---1---|1---1---|1---1---|1---1---|1---1---|
|--------|-------1|--------|-------1|--------|-------1|--------|-------1|--------|
|--------|--------|--------|--------|--------|--------|--------|--------|--------|

================================================================================
#----------------------------------PLEASE NOTE---------------------------------#
#This file is the author's own work and represents their interpretation of the #
#song. You may only use this file for private study, scholarship, or research. #
#------------------------------------------------------------------------------#

Dr. Jimmy 
By The Who, Written by Pete Townshend, 1973
©1973 Fabulous Music Ltd.

Originally transcribed by Kenny Sahr
==============
transcribed by
litgo@aol.com                   rev. 1-16-2002
==============

Note: All '/A' is implied by bass

A5       x02255                Ab       466544
A        x07650                Abmaj7   xx6543
D/A      x00232                Gsus4    xx5533
E/A      x02100                G        xx5433
Bb/A     x0876x                Cm       xx5543
F/A      x0756x                Cm/Bb   (6)x5543 (Bb implied by bass)
D6sus2/A x07700                Eb       x6888x
Esus4/A  x02200                Cm7      x35343
Dsus2/A  x07770                Abmaj9   4645(46)
Asus2    x02200                Am5      577xxx
F       (1t3)3211              G(chorus)355xxx
C/E     (0)32010               C(chorus)x355xx
Dm       xx0231                D(chorus)x577xx
Bb       x1333x                Am       x02210
E        022400

[intro]
A5||:A5      |D/A   |Esus4/A    |     A5:||x2
             |------|--
             |---2-3|5- [horn]
             |2-4---|--
             |------|--
             |------|--
             |------|--

[verse]
|E/A             /|D/A            /|E/A               /|A5        |
 Laugh and say I'm green, I've seen things you've never seen
|Asus2        /|D/A     /|E/A          /|A5        |
 Talk behind my back, I'm off the beaten track
|Bb/A           |F/A         |Dsus2/A            |A        |
    I'll take on anyone, ain't scared of a bloody nose 
|Bb/A           |F/A            |Dsus2/A      |D6sus2/A|A  |Asus2 //|Asus2|
    Drink 'til I drop down, with one eye on my clothes

[chorus]
|F      C/E  |Dm     Bb (C D E)|F    C/E   |Dm      Bb (C D E)|
   What is it?  I'll take it.    Who is she?  I'll rape it 
                                              [2/4]       [4/4]
|F      C/E     |Dm     Bb(C D E)|F        C/E|Dm         |Bb      |   (E)|
  Got a bet there? I'll meet it.   Gettin' high? You can't beat it

|Am5 Am5   G  G  |C  C   C D D|Am  (Am)        G   G    |C C    C  D D|
 Doctor Jimmy and Mister Jim,  when I'm pilled you don't notice him 
|Em       (D)   |C          D       |E      |       |E       |      |
   He only comes out when I drink my gin.

[verse 2]
|E/A              |D/A        |E/A             |A5        |
   You say she's a virgin, but I'm gonna be the first in
|E/A                |D/A     |E/A             |A5        |
   Her fella's gonna kill me, oh, fuckin' will he
|Bb/A          |F/A          |Dsus2/A       |A     |
   I'm seeing d-double, don't miss me if you can 
|Bb/A              |F/A             |Dsus2/A    |D6sus2/A |A  |Asus2 //|Asus2 |
   There's gonna be trouble when she chooses her man.......

[repeat chorus]
What is it? I'll take it. Who is she? I'll rape it. 
Got a bet there? I'll meet it. Gettin' high? You can't beat it.

Doctor Jimmy and Mister Jim, when I'm pilled you don't notice him. 
He only comes out when I drink my gin.

[bridge; horn arr. for gtr.]
                x6
||:E     |     :||:Ab |  |Ab    |       |Ab    |  |Ab    |        |
||-------|------||----|--|------|-------|------|--|------|--------|
||-------|------||----|--|------|-------|------|--|------|--------|
||.------|-----.||----|--|------|-------|------|--|------|--------|
||.------|-----.||----|--|------|-------|------|--|------|--------|
||-------|------||----|--|------|-------|------|--|------|--------|
||-0-2-4-|4-2-0-||----|--|4-6-8-|8-9-11-|8-6-8-|--|4-6-8-|8-6-8/6-|

||:Abmaj7   |Abmaj7   |Gsus4/C|G/D |Cm   |Cm/Bb    |Abmaj7   |Abmaj7  |
       Is it me, for a moment         The stars are falling 
//|Eb           Cm7|Abmaj9  //|Eb          Cm7|Abmaj9    :||x2
       The heat is  rising,       the past is  calling

|E   |    |    |    |E    |    |    |    |E    |    |

[verse 3]                                     
|E/A        |D/A       |E/A               |A5         A5|
   I'm going back soon, home to get that baboon 
                                         ||-----------5-|
                                         ||-----------5-|
                                         ||-----------2-|
                                         ||-----------2-|
                                         ||0-0-0-0-0--0-|
                                         ||-------------|

|(E/A)     A5|(D/A)  A5|(E/A)      A5|(A)    A5|
   Who cut up my eye,      tore up my Levis
|------------|---------|-------------|---------||
|------------|---------|-------------|---------||
|-----%------|----%----|------%------|----%----||
|------------|---------|-------------|---------||
|------------|---------|-------------|---------||
|------------|---------|-------------|---------||

|Bb/A           |F/A             |Dsus2/A      |A      |
     I'm feelin' restless, bring another score around
|Bb/A             |F/A           |Dsus2/A       |E/A   |A5  AA|Asus2 /|Asus2  |
   Maybe something stronger could really hold me down

[repeat chorus]
|F      C/E  |Dm     Bb (C D E)|
   What is it?  I'll take it.  
                            [violin interlude]
|F    C/E   |Dm      Bb     |(Am   G)|(C   D)|(Am   G)|(C   D)|
  Who is she?  I'll rape it 

|F      C/E     |Dm     Bb(C D E)|
  Got a bet there? I'll meet it. 
                                 [violin interlude] 
|F        C/E|Dm          Bb     |(Am   G)|(C   D)|(Am   G)|(C   D)|
  Gettin' high? You can't beat it

|F      C/E  |Dm     Bb (C D E)|
   What is it?  I'll take it.  
                               [violin interlude]
|F    C/E   |Dm         Bb     |(Am   G)|(C   D)|(Am   G)|(C   D)|
  Who is she?  Ooh, I'll rape it 

||:A5   //|A5   //|A5   //|A5   //:||x3

[piano only]
|(Am)   (G)      |(C)    (D)  |(Am)    (G)              |(C)    (D)   |
 Doctor Jimmy and Mister Jim,  when I'm pilled you don't notice him 
|Em       (D)   |C          D       |E      |       |E       |      |
   He only comes out when I drink my gin.

[repeat bridge]
Is it me, for a moment, the stars are falling 
The heat is rising, the past is calling

|E    |    |    |    |E   |    |E   |    |E   |    |
| (Ab)|    |Ab  |    |    |    |Ab  |Ab  |Ab  |Ab  |[to fade (Eb)]

================================================================================
#----------------------------------PLEASE NOTE---------------------------------#
#This file is the author's own work and represents their interpretation of the #
#song. You may only use this file for private study, scholarship, or research. #
#------------------------------------------------------------------------------#

The Rock
By The Who, Written by Pete Townshend, 1973
©1973 Fabulous Music Ltd.

Originally transcribed by
Kenny Sahr
==============                                                        
transcribed by         07-03-2001                              
litgo@aol.com      rev 05-15-2003             
==============                                                        

Four electric guitars, two main lead, one rhythm, one overdub lead

Lead guitar 1 (clean): tune down 1/2 step to (Eb Ab Db F# Bb Eb)
Lead guitar 2 (overdriven): tune down 1/2 step to (Eb Ab Db F# Bb Eb)
Lead guitar 3 (overdriven): tune down 1/2 step to (Eb Ab Db F# Bb Eb)
Rhythm guitar (overdriven): tune down 1/2 step to (Eb Ab Db F# Bb Eb)
Acoustic: standard tuning, capo on 1

Horn, piano and synths arranged for guitar: tune down 1/2 step (Eb Ab Db F# Bb Eb)

Eb         (0)7999x and 022100   (acoustic: x11343)
Cm          xx6654
Db          xx0232
F#          3x0033
Ab          x02255 and x022
Bb          x2444x
B           x3555x

['Is it me' piano chords arr for gtr]
Gaug        xx6554
Abmaj7      xx7654
Cm7         x46454
Abmaj9      575657 (577xxx) or x02420

[middle solo rhythm chords]
E           x(8 10)10 10 8
E7          x(8 10)8 10 8
Am          xx(8)666
Am6         xx(8)686
Eb          x(79)997
Eb7         x(79)797
Abm         xx(9)777
Abm6        xx(0)797

['Love Reign O'er Me' implied chords]
Ebmsus4     xx1344
Ebmsus4/Db  x41344

Note: Chords listed in () are implied bass transition notes. All leads approximate.

[Fade up from 'Dr. Jimmy']

["Bell Boy" theme (Keyboard only):]
||:Eb     Cm |Db      F# |Ab      Bb |B       Db  Eb/:||x2
[piano arr for gtr]
||-----------||
||-12---12---||
||.--9----9-.||
||.---9----9.||
||-----------||
||-----------||

    |Eb     Cm |Db      F# |Ab      Bb |B       Db  Eb/|  
----|----------|-----------|-----------|---------------|
----|----------|-----------|-----------|---------------|
-9-9|9---------|-----------|-----------|------------1-1|
-9-9|9---------|-----------|-----------|------------2-2|
-7-7|7---------|-----------|-----------|------------2-2|
----|0---------|-----------|-----------|------------0-0|
[horn synth arr for gtr]                               |
----|---12-----|-----------|-----------|---------------|
----|12--------|-----------|----10-----|---------------|
----|----------|-----------|9----------|-------11------|
----|----------|-----------|-----------|---------12----|
----|----------|-----------|-----------|---------------|
----|----------|-----------|-----------|---------------|

|Eb     Cm |Db      F# |Ab      Bb |B       Db  Eb/|  
|0---------|-----------|-----------|---------------|
|0---------|-----------|-----------|---------------|
|1---------|-----------|-----------|------------9-9|
|2---------|-----------|-----------|------------9-9|
|2---------|-----------|-----------|------------7-7|
|0---------|-----------|-----------|----xxxxxx-----|
[horn synth arr for gtr]                           |
|---12-----|-----------|-----------|---------------|
|12--------|-----------|---10------|---------------|
|----------|-----------|9----------|-------11------|
|----------|-----------|-----------|---------12----|
|----------|-----------|-----------|---------------|
|----------|-----------|-----------|---------------|

[With a beat]                                  
|Eb  Cm Db|      F# Ab|      Bb B|       Db    |
|------4-2|-------3---|5---------|-------2-----|
|9-----5-3|-------3---|5---------|-------3-----|
|9-----6-2|-------0---|2------4--|5------2--9-9|
|9-----6-0|-------0---|2------4--|5------0--9-9|
|7--------|----------0|0------2-3|3---------7-7|
|0--------|-------3---|----------|----------0-0|
[horn synth arr for gtr]                       |
|---12----|-----------|----------|-------------|
|12-------|-----------|---10-----|-------------|
|---------|-----------|9---------|-----11------|
|---------|-----------|----------|-------12----|
|---------|-----------|----------|-------------|
|---------|-----------|----------|-------------|

|Eb  Cm Db|      F# Ab |      Bb B|       Db    |
|------4--|2------3-5-5|5---------|-------------|
|9-----5--|3------3-5-5|5---------|-------------|
|9-----6-2|2------0-2-2|2------4-5|5---------1-1|
|9-----6-0|-------0-2-2|2------4-5|5---------2-2|
|7--------|---------0-0|0------2-3|3---------2-2|
|0--------|-------3----|----------|-----xxxx----|
[horn synth arr for gtr]                        |
|---12----|------------|----------|-------------|
|12-------|------------|---10-----|-------------|
|---------|------------|9---------|-----11------|
|---------|------------|----------|-------12----|
|---------|------------|----------|-------------|
|---------|------------|----------|-------------|

|Eb  Cm Db|     F# Ab|      Bb B|        Db |Eb     |    Db|Eb    |   |
|0-----4-2|------3---|5---------|-----------|0------|------|0-----|---|
|0-----5-3|------3---|5---------|-----------|0------|------|0-----|---|
|1-----6-2|------0---|2------4-5|5-------7\-|1------|------|1-----|---|
|2-----6-0|------0--2|2------4-5|5-------7\-|2------|-----0|------|---|
|2--------|---------0|0------2-3|3-------5\-|2------|------|------|---|
|0--------|------3---|----------|-----------|0------|------|------|---|
[horn synth arr for gtr]                                              |
|---12----|----------|----------|-----------|-------|------|------|---|
|12-------|----------|---10-----|-----------|-------|----10|12----|---|
|---------|----------|9---------|---11------|9------|------|------|---|
|---------|----------|----------|-----12----|-------|------|------|---|
|---------|----------|----------|-----------|-------|------|------|---|
|---------|----------|----------|-----------|-------|------|------|---|

[Keyboard intro to "Is it me" theme]
|Ebsus4 / / / | / / / / |Ab / / / |Ab / / / |

["Is it me" theme]
|Abmaj7    |                 |Gaug     |G           |
|----17-16-|17-16h17p16------|---16----|------------|
|----------|-----------17-17h|19---17--|------------|
|----------|-----------------|---------|------------|
|----------|-----------------|---------|------------|
|----------|-----------------|---------|------------|
|----------|-----------------|---------|------------|

|Cm     |Cm(Bb)           |Abmaj7          |        |
|-------|17^(19)-17^(19)--|^17\-16--19^(21)|^19(21)\|
|----17-|-----------------|-------17-------|--------|
|-------|-----------------|----------------|--------|
|-------|-----------------|----------------|--------|
|-------|-----------------|----------------|--------|
|-------|-----------------|----------------|--------|

    |Eb      Cm7    |Abmaj9          |
    |--19----19-----|19--------------|
    |19^--19^---19^-|-19^-17---17-17-|
    |---------------|----------------|
    |---------------|----------------|
    |---------------|----------------|
    |---------------|----------------|
[rhythm gtr in]                      |
----|---------------|----------------|
----|--------5------|----------------|
9-9-|9-------4------|2-----------9-9-|
9-9-|9-------6------|2-----------9-9-|
7-7-|7-------4------|0-----------7-7-|
----|---------------|----------------|

|Eb                                  Cm7 |Abmaj9                        |
|16h19p16--16h19p16--16h19p16--16h19p16--|16h19p16--16h19p16--16h19p16--|
|--------17--------17--------17--------17|--------17--------17--------17|
|----------------------------------------|------------------------------|
|----------------------------------------|------------------------------|
|----------------------------------------|------------------------------|
|----------------------------------------|------------------------------|
|                                        |                              |
|----------------------------------------|------------------------------|
|--------------------------------------5-|------------------------------|
|9-------------------------------------4-|2-----------------------------|
|9-------------------------------------6-|2-----------------------------|
|7-------------------------------------4-|0-----------------------------|
|----------------------------------------|------------------------------|

|Abmaj7         |              |Gaug |G          |
|19\------------|--------------|-----|-----------|
|--------10-9-10|-9h10p9-------|-----|-----------|
|------9--------|-------9-11-9-|-----|------9--11|
|---------------|--------------|10---|-----------|
|---------------|--------------|-----|-----------|
|---------------|--------------|-----|-----------|

|Cm     |Cm(Bb) |Abmaj7    |                   |
|-----0-|-----0-|---0----0-|-0--0--0--0-----0--|
|-------|7^-----|7^---7^---|-7^-7^-7^-7^\-5p0--|
|11^----|-------|----------|-------------------|
|-------|-------|----------|-------------------|
|-------|-------|----------|-------------------|
|-------|-------|----------|-------------------|

     |Eb      Cm7|Abmaj9     |Eb       Cm7|Abmaj9       |
     |-0------0--|--0------0-|-0------0---|--0------0---|
     |--0------0-|---0------0|--0------0--|---0------0--|
     |4^-(^)4\---|4^--(^)4\--|4^-(^)4\----|4^--(^)4\--4/|
     |-----------|-----------|------------|-------------|
     |-----------|-----------|------------|-------------|
     |-----------|-----------|------------|-------------|
[rhythm gtr in]                                         |
12-12|12------9--|9-----12-12|12--------9-|9------------|
12-12|12------12-|12----12-12|12--------12|12-----------|
9--9-|9-------9--|9-----9--9-|9---------9-|9------------|
9--9-|9-------9--|11----9--9-|9---------9-|11-----------|
-----|-----------|-----------|------------|-------------|
-----|-----------|-----------|------------|-------------|

|E   |    |E         |     |                 |
|----|----|----------|-----|-----------------|
|----|----|----------|-----|-----------------|
|5---|----|----------|-----|-----------------|[lead out]
|----|----|----------|-----|-----------------|
|----|----|----------|-----|-----------------|
|----|----|----------|-----|-----------------|
|[rhythm gtr]                                |
|----|----|----------|-----|-----------------|
|----|----|-13-13-13-|13---|--13-13-13-11-10-|
|----|----|-10-10-10-|10---|--10-10-10-10-10-|
|----|----|-10-10-10-|10---|--10-10-10-10-10-|
|----|----|----------|-----|-----------------|
|----|----|----------|-----|-----------------|

                           ["Helpless dancer" horn theme; rhythm gtr out]
|E         |               |E     |     |E(D) |    |
|----------|---------------|------|-----|-----|----|
|11--10-10-|---10h11p10----|10----|-----|-----|----|
|10--10-10-|---10------h12p|10----|-----|-----|----|
|10--10-10-|---10----------|10----|-----|-----|----|
|----------|---------------|------|-----|-----|----|
|----------|---------------|------|-----|-----|----|
                           [2 horns arr for gtr]
                           |5-5-6-|8----|-----|----|
                           |-8----|-----|-----|----|
                           |------|-----|-----|----|
                           |------|-----|-----|----|
                           |------|-----|-----|----|
                           |------|-----|-----|----|

|E / / / |/ / / /|E(D) / / /|/ / / /|
[2 horns for one guitar]
|5---5-6-|8------|----------|-------|
|--8-----|-------|----------|-------|
|5-------|-------|----------|-------|
|------8-|7------|----------|-------|
|--------|-------|----------|-------|
|--------|-------|----------|-------|

|E / / / |/ / / /|D / / /|/ / / /|E / / /|/ / / /|/ / / /|/ / / /|
|5---5-6-|8------|6------|6------|8------|-------|-------|-------|
|--8-----|-------|-------|-------|-------|-------|-------|-------|
|5-------|-------|-------|-------|5------|-------|-------|-------|
|------8-|7------|8------|8------|-------|-------|-------|-------|
|--------|-------|-------|-------|-------|-------|-------|-------|
|--------|-------|-------|-------|-------|-------|-------|-------|

[Piano rhythm only; implied chords]                     x4              x2
||:E     /     E7     /    |Am    /         Am6   /    :||:E           :||
||----------6--8--6--8-----|9--8--9-8h9p8---------------||--------------||
||-10-8--10-------------6--|----------------11-10-11-8--||-10---8-10--8-||
||.------------------------|---------------------------.||.------------.||
||.------------------------|---------------------------.||.------------.||
||-------------------------|----------------------------||--------------||
||-------------------------|----------------------------||--------------||
||[piano arr for gtr]                                                   ||
||-------------------------|----------------------------||--------------||
||-------------------------|----------------------------||--------------||
||.------------------------|---------------------------.||.------------.||
||.9-----------9-----------|7---------------7----------.||.9-------9---.||
||-7-----------7-----------|7---------------7-----------||-7-------7----||
||-------------------------|----------------------------||--------------||

[drums in; rhythm gtr in, palm mute only, no chords] 
                                                x4[rhythm out]  x3           
||:E       /  E7      / |Am         /Am6      /:||:E           :||E          |
||---------6--8--6--8---|9-8-9-8h9p8------------||--------------||-----------|
||-10-8-10------------6-|------------11-10-11-8-||-10--8-h10--8-||h10--8-h10-|
||.---------------------|----------------------.||.------------.||-----------|
||.---------------------|----------------------.||.------------.||-----------|
||----------------------|-----------------------||--------------||-----------|
||----------------------|-----------------------||--------------||-----------|

[rhythm gtr on chords, palm mute]                      x3[rhyh out]    x2
||:Eb         / Eb7       /|Abm          / Abm6     / :||:Eb          :||
||[guitar 1]               |                           ||              ||
||----------5---7--5--7----|8--7-8-7h8p7---------------||--------------||
||-9--7--9---------------5-|---------------10-9-10-7---||-9---7--9---7-||
||.------------------------|--------------------------.||.------------.||
||.------------------------|--------------------------.||.------------.||
||-------------------------|---------------------------||--------------||
||-------------------------|---------------------------||--------------||
||[guitar 2]               |                           ||              ||
||-------------------------|---------------------------||--------------||
||----------7---9--7--9----|10-9-10-9h10p9-------------||--------------||
||.9--8--9---------------7-|---------------11-9--11-8-.||.9---8--9--8-.||
||.------------------------|--------------------------.||.------------.||
||-------------------------|---------------------------||--------------||
||-------------------------|---------------------------||--------------||

[drums out; rhythm in, palm mute]            x3
||:Eb   /  Eb7   / |Abm   /        Abm6   / :||
||[guitar 1]       |                         ||
||-------5-7--5-7--|8--7-8-7h8p7-------------||
||-9-7-9----------5|---------------10-9-10-7-||
||.----------------|------------------------.||
||.----------------|------------------------.||
||-----------------|-------------------------||
||-----------------|-------------------------||
||[guitar 2]       |                         ||
||-----------------|-------------------------||
||-------7-9--7-9--|10-9-10-9h10p9-----------||
||.9-8-9----------7|---------------11-9-11-8.||
||.----------------|------------------------.||
||-----------------|-------------------------||
||-----------------|-------------------------||
||[horn synth in]  |                         ||
||-------12--------|-------------------------||
||-----------------|---------------10--------||
||.9---------------|-------------------11---.||
||.----------------|------------------------.||
||-----------------|-------------------------||
||-----------------|-------------------------||

           [rhyth out]   
|Eb        |Eb        |Eb          |Eb        |
|[guitar 1]|          |            |          |
|----------|----------|------------|----------|
|9--7-9--7-|9--7-9--7-|7h9--7h9--7h|9--7h9----|
|----------|----------|------------|----------|
|----------|----------|------------|----------|
|----------|----------|------------|----------|
|----------|----------|------------|----------|
|[guitar 2]|          |            |          |
|----------|----------|------------|----------|
|----------|----------|------------|----------|
|9--8-9--8-|9--8-9--8-|8h9--8h9--8h|9--8h9----|
|----------|----------|------------|----------|
|----------|----------|------------|----------|
|----------|----------|------------|----------|
|[horn synth sustain]              |          |
|--12------|(12)------|(12)--------|(12)------|
|----------|----------|------------|----------|
|9---------|----------|------------|----------|
|----------|----------|------------|----------|
|----------|----------|------------|----------|
|----------|----------|------------|----------|

[drums in; rhythm gtr in, straight time, palm mute]        x4
||:Eb    /      Eb7   /    | Abm   /           Abm6  /    :||
||[guitar 1]               |                               ||
||----------5---7--5--7----|-8--7--8-7h8p7-----------------||
||-9--7--9---------------5-|-------------------10-9--10-7--||
||.------------------------|------------------------------.||
||.------------------------|------------------------------.||
||-------------------------|-------------------------------||
||-------------------------|-------------------------------||
||[guitar 2]               |                               ||
||----------8--10-8--10----|-12-11-12-11h12p11-------------||
||-12-10-12--------------12|-------------------13-12-13-10-||
||.------------------------|------------------------------.||
||.------------------------|------------------------------.||
||-------------------------|-------------------------------||
||-------------------------|-------------------------------||
||[guitar 3]               |                               ||
||-------------------------|-------------------------------||
||-------------------------|-------------------------------||
||.9-----------------------|-------------------11--9-11-8-.||
||.------------------------|------------------------------.||
||-------------------------|-------------------------------||
||-------------------------|-------------------------------||
||[horn synth]             |                               ||
||-------------------------|-------------------------------||
||-9-----------------------|-------------------10----------||
||.------------------------|-------------------------11---.||
||.------------------------|------------------------------.||
||-------------------------|-------------------------------||
||-------------------------|-------------------------------||

                                                           x4
||:Eb    /      Eb7   /    | Ab    /           Abm6  /    :||
||[guitar 1]                                               ||
||-----------5--7--5--7----|-9--8--9-8h9p8-----------------||
||--9--7--9---------------5|-------------------10-9--10-7--||
||.------------------------|------------------------------.||
||.------------------------|------------------------------.||
||-------------------------|-------------------------------||
||-------------------------|-------------------------------||
||[guitar 2]               |                               ||
||----------8--10-8--10----|-12-11-12-10h12p10-------------||
||-12-10-12--------------12|-------------------13-12-13-10-||
||.------------------------|------------------------------.||
||.------------------------|------------------------------.||
||-------------------------|-------------------------------||
||-------------------------|-------------------------------||
||[guitar 3]               |                               ||
||-------------------------|-------------------------------||
||-------------------------|-------------------------------||
||.9-----------------------|-------------------11--9-11-8-.||
||.------------------------|---------------11-------------.||
||-------------------------|-------------------------------||
||-------------------------|-------------------------------||
||[horn synth]             |                               ||
||-------12----------------|-------------------------------||
||-9-----------------------|--------------------10---------||
||.------------------------|-------------------------11---.||
||.------------------------|------------------------------.||
||-------------------------|-------------------------------||
||-------------------------|-------------------------------||

[rhythm gtr out]          x2
||:Eb                    :||Eb                     |Eb               |
||[guitar 1]              ||                       |     [gtr 1 out] |
||-----------5--7--5-7--5-||-----------------------|-----------------|
||-9--7--9----------------||9--7--9---7--9---------|-----------------|
||.----------------------.||-----------------------|-----------------|
||.----------------------.||-----------------------|-----------------|
||------------------------||-----------------------|-----------------|
||------------------------||-----------------------|-----------------|
||[guitar 2]              ||                       |    [pick slide] |
||----------8--10-8--10-8-||-----------------------|-----------------|
||-12-10-12---------------||12-10-12-10--12-----10-|12---------------|
||.----------------------.||-----------------------|-----------------|
||.----------------------.||-----------------------|-----------------|
||------------------------||-----------------------|-----------------|
||------------------------||-----------------------|----xxxxxxxxxxxxx|
||[guitar 3]              ||                       |     [gtr 3 out] |
||------------------------||-----------------------|-----------------|
||------------------------||-----------------------|-----------------|
||.9---------------------.||--------------------8--|9----------------|
||.----------------------.||-----------------------|-----------------|
||------------------------||-----------------------|-----------------|
||------------------------||-----------------------|-----------------|
||[horn synth]                                                       |
||---12-------------------||(12)-------------------|-----------------|
||9-----------------------||-----------------------|-----------------|
||------------------------||-----------------------|-----------------|
||------------------------||-----------------------|-----------------|
||------------------------||-----------------------|-----------------|
||------------------------||-----------------------|-----------------|

["Love Reign O'er Me" theme (Half Tempo) (6/8)]
|Ebm7/ / |/ / / |/ / / |/ / Ebm(Db)|Bmaj7 / / |/   /    Bmaj7(Bb)|
|[guitar 2]                                                      |
|--------|------|------|-----------|----------|------------------|
|--------|------|------|-----------|----------|------------------|
|--------|------|14^---|14^---(^)14|14--12----|------14^--\-14^--|
|--------|------|------|-----------|------14--|------------------|
|--------|------|------|-----------|----------|------------------|
|0-------|0-----|------|-----------|----------|------------------|

|Abm7 / / |/      /        /    |Ebm7   |                |            |
|[guitar 2]                                                           |
|----12---|15^-----12---15--12--|12-----|17-15-17-15-17^-|15-(0)------|
|---------|------15--15-------15|-------|----------------|---15~\-----|
|12-------|---------------------|-------|----------------|------------|
|--14-----|---------------------|-------|----------------|------------|
|---------|---------------------|-------|----------------|------------|
|---------|---------------------|-------|----------------|------------|

|             Ebm(Db)|Bmaj7 / /  |/   / Bmaj7(Bb)|Abm7 /  /|             |
|[guitar 2]                                                              |
|--------------------|-----------|---------------|---------|0---0-2-0-3-0|
|-------10^(12)-8----|-----------|---------------|------5-3|4^(5)-------0|
|-7^~-7----------9---|-----------|---------0h2-0h|2^(4)----|-------------|
|------------------7^|7^(9)--7-5-|---------------|---------|-------------|
|--------------------|-----------|7-5------------|---------|-------------|
|--------------------|-----------|----3~---------|---------|-------------|

[acoustic in; rapid strum flourish]
|Eb//////| % |      %       | % |       %     | % | %    |     %    |Eb    
|Eb      |   |              |   |             |   |      |          |      
|[guitar 2]                                                         |      
|0-------|---|--------------|---|-------------|---|-----<|12\10\9---|0-----
|0-------|---|---<12>-------|---|9--<12>------|---|------|----------|0-----
|1-------|---|11^----(^)11\-|9--|11^----(^)11\|9--|------|----------|------
|2-------|---|--------------|---|-------------|---|------|----------|------
|2-------|---|--------------|---|-------------|---|------|----------|------
|0-------|---|--------------|---|-------------|---|------|----------|------
|[horn synth]                                                            
|--------|---|4-----4--5----|7--|4------4--5--|7--|------|----------|------
|--------|---|---7----------|---|----7--------|---|------|----------|------
|--------|---|--------------|---|-------------|---|7-6-4-|----------|------
|6-4-6-7-|9--|--------------|---|-------------|---|-----7|9---------|------
|--------|---|--------------|---|-------------|---|------|----------|------
|--------|---|--------------|---|-------------|---|------|----------|------

[piano and strings only; acoustic fades out]
|Eb / / / | / / / / | / / / / | / / / / |

                    [drum fill]
|Eb / / / | / / / / | / / / / | / / / / ||

[Finale on "Bell Boy" theme (keyboard solo)]
||:Eb                     |                        |
||[bell synth pattern arr for guitar; repeats to end]
||-16----16-17-19-17-19-17|16----16-17-19-17-19-17-|
||----19------------------|---19-------------------|
||.-----------------------|------------------------|
||.-----------------------|------------------------|
||------------------------|------------------------|
||------------------------|------------------------|
||[horn synth arr for guitar]                      |
||-------------12---------|------------------------|
||------------------------|------------------------|
||-9----------------------|------------------------|
||------------------------|------------------------|
||------------------------|------------------------|
||------------------------|------------------------|

|                        |                       :||
|16----16-17-19-17-19-17-|15----15-17-19-17-19-17-||
|---17-------------------|---17-------------------||
|------------------------|-----------------------.||
|------------------------|-----------------------.||
|------------------------|------------------------||
|------------------------|------------------------||
|[horn synth arr for guitar]                      ||
|------------------------|------------------------||
|5-----------10----------|------------------------||
|------------------------|-------------11---------||
|------------------------|-----------------12-----||
|------------------------|------------------------||
|------------------------|------------------------||

[repeat bell synth pattern]
|    %     |      %       |      %      |  %     |
|[horn synth arr for guitar]                     |
|----12---|---------------|-------------|--------|
|---------|---------------|5-------10---|--------|
|9--------|---------------|-------------|----11--|
|---------|---------------|-------------|------12|
|---------|---------------|-------------|--------|
|---------|---------------|-------------|--------|
|[wah synth arr for guitar]                      |
|---------|---------------|-------------|--------|
|--<12-<12|10-8-5---------|------12--12-|10-8-5--|
|---------|---------------|-------------|--------|
|---------|---------------|-------------|--------|
|---------|---------------|-------------|--------|
|---------|---------------|-------------|--------|

[guitar in, with bell synth pattern as above]                 
    |Eb  Cm Db|       F# Ab|      Bb  B|     (Db)    |
    |[guitar]
----|------4-2|-------3----|-----------|-------------|
----|9-----5-3|-------3----|-----------|-------------|
-9-9|9-----6-2|-------0-0-2|------4-4/5|------\--/--9|
-9-9|9-----6-0|-------0-0-2|------4-4/5|------\--/--9|
-7-7|7--------|-----------0|------2-2/3|------\--/--7|
----|0--------|-------3-3--|-----------|-------------|
    |                                [depress vibrato]
    |[wah synth arr for guitar]                      |
----|---------|------------|-----------|-------------|
----|-12-14-12|14--12------|--12--12-10|-8-5~--------|
----|---------|------------|-----------|-------------|
----|---------|------------|-----------|-------------|
----|---------|------------|-----------|-------------|
----|---------|------------|-----------|-------------|
    |[horn synth arr for guitar; repeat]             |
----|----12---|------------|-----------|-------------|
----|---------|------------|5-----10---|-------------|
----|9--------|------------|-----------|--------11---|
----|---------|------------|-----------|----------12-|
----|---------|------------|-----------|-------------|
----|---------|------------|-----------|-------------|

|Eb  Cm Db|       F# Ab|      Bb  B|        Db|
|------4-2|-------3----|-----------|----------|
|9-----5-3|-------3----|-----------|----------|
|9-----6-2|-------0-0-2|------4-4/5|--------7\|
|9-----6-0|-------0-0-2|------4-4/5|--------7\|
|7--------|-----------0|------2-2/3|--------5\|
|0--------|-------3-3--|-----------|----------|
|[wah synth arr for guitar]                   |
|----19-17|------------|-----19-19-|17-15-----|
|--17-----|17----------|<17--------|-----17---|
|---------|------------|-----------|----------|
|---------|------------|-----------|----------|
|---------|------------|-----------|----------|
|---------|------------|-----------|----------|
|[horn synth arr for guitar]                  |
|---12----|------------|-----------|----------|
|---------|------------|5-----10---|----------|
|9--------|------------|-----------|------11--|
|---------|------------|-----------|--------12|
|---------|------------|-----------|----------|
|---------|------------|-----------|----------|

|Eb    Cm Db|       F# Ab|      Bb  B|        Db    |
|------4---2|-------3----|-----------|--------2-2-2-|
|0-----5---3|-------3----|-----------|--------3-3-3-|
|1-----6---2|-------0-0-2|------4-4-5|--------2-2-2-|
|2-----6---0|-------0-0-2|------4-4-5|--------0-0-0-|
|2----------|-----------0|------2-2-3|--------------|
|0----------|-------3-3--|-----------|--------------|
|[wah synth arr for guitar]                         |
|-----------|------------|-----------|--------------|
|--<12-<12--|10-8-5~-----|---<12-<12-|10-8--5~------|
|-----------|------------|-----------|--------------|
|-----------|------------|-----------|--------------|
|-----------|------------|-----------|--------------|
|-----------|------------|-----------|--------------|
|[horn synth arr for guitar]                        |
|---12------|------------|-----------|--------------|
|-----------|------------|5-----10---|--------------|
|9----------|------------|-----------|----------11--|
|-----------|------------|-----------|------------12|
|-----------|------------|-----------|--------------|
|-----------|------------|-----------|--------------|

|Eb           |              |Ebm     
|-------------|--------------|--------
|0------------|--------------|--------
|1------------|--------------|--------
|2------------|--------------|--------
|2------------|--------------|--------
|0------------|---xxxxxxxxxx-|--------
|[wah synth arr for guitar]           
|-------------|--------------|--------
|--<12-<12-<10|-12-----------|--------
|-------------|--------------|--------
|-------------|--------------|--------
|-------------|--------------|--------
|-------------|--------------|--------
|[horn synth arr for guitar]          
|---12--------|--------------|15------
|-------------|--------------|--------
|9------------|--------------|--------
|-------------|--------------|--------
|-------------|--------------|--------
|-------------|--------------|--------



[fade to rain and thunder sounds]

================================================================================
#----------------------------------PLEASE NOTE---------------------------------#
#This file is the author's own work and represents their interpretation of the #
#song. You may only use this file for private study, scholarship, or research. #
#------------------------------------------------------------------------------#

Love, Reign O'er Me
By The Who, Written by Pete Townshend, 1972
©1972 Fabulous Music Ltd.

==============
transcribed by
litgo@aol.com               rev 1-13-2002
==============

On record, electric tuned down to Eb; acoustic capo on 1 
Note: leads are approximate

Chords: (elec; dropped tuning)       (acoustic; capo on 1)
       tuning: Eb Ab Db Gb Bb Eb       standard tuning
Ebmsus4     022200                      x (1)1 3 4 4
Ebmsus4/Db  020230                      x (4)1 3 4 4
Ebm         022000                      x (1)1 3 4 2
Bmaj7       x32000                     (2) x 4 3 4 2  and 2x4341
Bmaj7/Ab    x02000                     (4) x 4 3 4 2  and (4)x4341
Abm7        x02013                      4  x 1 1 4 4  
Ebm/Bb      x22000                      x  1 1 3 4 2
F#          3x0003                      2t x 4 3 2 2
F#sus4/Ab  (3)x0213 or x00213           2t x 4 4 2 2
Eb          022100 or 022400            x (1)1 3 4 3
Ab/Eb       002255 or 042200            x (1)1 5 4 4
Bb/Eb       02444x or 050300            x (1)1 7 6 6
Bb          x2444x                      x  1 3 3 3 (6)
Ebm7        020030                      x (1)1 3 2 2  and x(1)1342
Ebm7sus2   (020032)                     x (1)1 3 4 1

[12/8]

[Piano intro arr for guitar]
Eb||------------------||
Bb||-10-----10--------||
Gb||.--9------9------.||
Db||.----7------7----.||
Ab||------------------||
Eb||------------------||

    |Ebmsus4         |                |Ebmsus4/Db            |    
Only love can make it rain the way the beach is kissed by the sea

    |Ebmsus4         |                      |Ebmsus4/Db          |         |
Only love can make it rain like the sweat of lovers laying in the fields

[chorus; main chorus pattern]
  || Ebm7 Ebm7sus2...*            |Bmaj7   |Bmaj7/Ab         |
     Love,              reign o'er me
  ||[electric]                                               |
eb||-15-14-12-10-|----------------|--------|-----------------|
Bb||-------------|12-10-8-----7---|--------|-----------------|
Gb||.------------|----------------|9-7-5-4-|0h2--------------|
Db||.------------|----------------|--------|----5-------2----|
Ab||-------------|----------------|--------|------0h2p0--0-2-|
Eb||-------------|----------------|--------|-----------3-----|
  |[acoustic with capo on 1st]                               |
 F||-2--1--2--1--|2--1--2-----1---|2-1-2-1-|2---1-2----1-----|
 C||-4--4--4--4--|4--4--4-----4---|4-4-4-4-|4---4-4----4-----|
Ab||.3--3--3--3--|3--3--3-----3---|3-3-3-3-|3---3-3----3-----|
Eb||.1--1--1--1--|1--1--1-----1---|4-4-4-4-|4---4-4----4-----|
Bb||-------------|----------------|--------|-----------------|
 F||-------------|----------------|--------|-----------------|
[*note: alt betw Ebm7 and Ebm7sus2 for measure]

  |Ebm7        |                |Bmaj7           |Abm7            |
   Love,              reign o'er me,   reign o'er me,    reign o'er
eb|15-14-12-10-|----------------|----------------|----------------|
Bb|------------|12-10-8-----7---|----------------|----------------|
Gb|------------|----------------|9-7--5---4------|0h2-------------|
Db|------------|----------------|----------------|----5--4----2--/|
Ab|------------|----------------|----------------|----------------|
Eb|------------|----------------|----------------|----------------|
  |                                                               |
 F|2--1--2--1--|2--1--2-----1---|2-1--2---1------|4---4--4----4---|
 C|4--4--4--4--|4--4--4-----4---|4-4--4---4------|4---4--4----4---|
Ab|3--3--3--3--|3--3--3-----3---|3-3--3---3------|1---1--1----1---|
Eb|1--1--1--1--|1--1--1-----1---|4-4--4---4------|1---1--1----1---|
Bb|------------|----------------|----------------|----------------|
 F|------------|----------------|----------------|4---4--4----4---|

  |Bbsus4    |Bb   Bb7   ||
   me                 (Only)
eb|----------|-----------||
Bb|----------|-----------||
Gb|----------|----------.||
Db|9---------|9---------.||
Ab|----------|9----------||
Eb|---------7|7----------||
  |          |           ||
 F|1---------|1----1-----||
 C|4---------|3----3-----||
Ab|3---------|3----1----.||
Eb|3---------|3----3----.||
Bb|1---------|1----1-----||
 F|----------|-----------||

[repeat verse]
Only love can bring the rain that makes you yearn to the sky
Only love can bring the rain that falls like tears from on high

[repeat chorus]
  |Ebm7        |                |Bmaj7           |Bmaj7/Ab        |
   Love,              reign o'er me, reign o'er me,  reign o'er me
eb|15-14-12-10-|----------------|----------------|----------------|
Bb|------------|12-10-8-----7---|----------------|----------------|
Gb|------------|----------------|9-7--5---4------|0h2-------------|
Db|------------|----------------|----------------|----5--4--------|
Ab|------------|----------------|----------------|----------------|
Eb|------------|----------------|----------------|---------0-3-0--|

  |Ebm7         |                         |
   Love,                reign   o'er       
eb|15-----------|---------------12------12|
Bb|---------8-10|10^----12p10-12--10-12---|
Gb|-------/9----|-------------------------|
Db|--7h9~-------|---9x--------------------|
Ab|-------------|-------------------------|
Eb|-------------|-------------------------|

|Bmaj7             |Abm7                     |
 me, reign o'er me, reign o'er me.............
|------------------|-------------------------|
|----13^(15)-------|--------13^^-------------|
|9---------9-------|------------12\9---------|
|------------------|-------------------------|
|------------------|----------------7-0-----0|
|------------------|-------------------0-2-3-|

  |Bbsus4    |Bb   Bb7   ||
   ....                   
eb|---------7|7----------||
Bb|--------5-|7----------||
Gb|-------4--|4---------.||
Db|------4---|4---------.||
Ab|2---------|-----------||
Eb|----------|-----------||
  |          |           ||
 F|1---------|1----1-----||
 C|4---------|3----3-----||
Ab|3---------|3----1----.||
Eb|3---------|3----3----.||
Bb|1---------|1----1-----||
 F|----------|-----------||

[bridge]
|F#        F#sus4/Ab                 |
    On the dry and dusty road  
|------------------------------------|
|--12-------------------12h13-12--15-|
|------------------------------12----|
|/12--------------------12-----------|
|------------------------------------|
|------------------------------------|

|F#              F#sus4/Ab           |F#          F#sus4/Ab      |
   The nights we spent apart alone      I need to get back home to
|15-----------------------15---------|15----------15-------------|
|-----------------12h13-12----13-12--|---------------------13p12-|
|---------------------------12-------|---------------------------|
|-----------------12-----------------|---------------------------|
|------------------------------------|---------------------------|
|------------------------------------|---------------------------|

|Eb         Ab/Eb   |Bb/Eb     Ab/Eb           |
 Cool, cool rain
|-------------------|--------------------------|
|--9----9----10--10-|--12--12--12-----12/13-15-|
|-------------------|--------------------------|
|/9---/9---/11-/11--|/13-/13-/13---------------|
|-------------------|--------------------------|
|-------------------|--------------------------|

|F#                         F#sus4/Ab           |
    I can't sleep and I'd lay and I'd think 
|15-----------------------------------7-7-------|
|-------------------------------------8-8/3-----|
|------------------------------------------4/5--|
|-----------------------------------------------|
|-----------------------------------------------|
|-----------------------------------------------|

|F#             F#sus4/Ab             |F#           F#sus4/Ab       |
   The night is hot and black as ink     Oh, god, I need a drink  of 
|--------------------------------3-3--|-------15--------------------|
|-------------------------------------|-----------------------------|
|4----------------------------4/5-5-5-|4--------------4h5-4---------|
|-------------------------------------|--------------------5--------|
|-------------------------------------|-----------------------------|
|-------------------------------------|-----------------------------|

|Eb         Ab/Eb  |Bb/Eb   Ab/Eb     |
 Cool, cool rain
|-----------5--5---|------------------|
|------------------|7--7----5--5------|
|------------6--6--|-7--7----6--------|
|2-----------------|--------------2-2-|
|------------------|------------------|
|------------------|------------------|

|F#    F#sus4/Ab    |F#          F#sus4/Ab   |F#     F#sus4/Ab    |
|3-3----------------|---15-------------------|--------------------|
|3-3----12-12-13-12-|------------12-13-13-12-|-----------12/13-12\|
|0-0----------------|14^--\14-12-12--------12|<5>--------12----12\|
|-----/12-----------|------------------------|<5>-----------------|
|-------------------|------------------------|--------------------|
|-------------------|------------------------|--------------------|

|Eb       Ab/Eb      |Bb/Eb    Ab/Eb     |
|--4--4----5---5-----|--7---7---7----7---|
|--------------------|-------------------|
|/4-/4---/6--/6------|/8--/8--/8--/8-----|
|--------------------|-----------------9\|
|--------------------|-------------------|
|--------------------|-------------------|

| F#       F#sus4/Ab  |F#      F#sus4/Ab    |F#    F#sus4/Ab     |
|------15----7---5----|------------------3--|----------------3-3-|
|(0)------------------|---3-----------------|3-3-----------------|
|(0)-/16---/7--/5-----|0/4---4/5-4----4/5-4-|0-0----4-4/5/4-5----|
|---------------------|-----------5---------|--------------------|
|---------------------|---------------------|--------------------|
|---------------------|---------------------|--------------------|

|Eb    Ab/Eb |Bb/Eb Ab/Eb|
|------------|-----------|
|9-----10----|12---------|
|9-----9-----|11---------|
|9-----11----|13---------|
|------------|-----------|
|0-----0-----|0----------|

|Ebmsus4         |                |Ebmsus4/Db       |            |
|----------------|----------------|-----------------|------------|
|----------------|----------------|-----------------|------------|
|----------------|----------------|-----------------|------------|
|9---------5-7-7h|9-----------5-7-|7----------7h9-5-|------------|
|--------7-------|----------7-----|-----------------|7---------x-|
|----------------|----------------|-----------------|------------|

|Ebmsus4               |                |Ebmsus4/Db    |           |
|----------------------|----------------|--------------|-----------|
|----------------------|----------17-17-|17------17-19-|20^--------|
|14^-----12-14-12h14-12|h14-----16------|--------------|-----------|
|------14--------------|----------------|--------------|-----------|
|----------------------|----------------|--------------|-----------|
|----------------------|----------------|--------------|-----------|

[repeat chorus]
Love, reign o'er me, reign over me, over me, over me, whoa
Love, reign o'er me, whoa o'er 

  |Ebm7        |                |Bmaj7           |Bmaj7/Ab             |
   Love,              reign o'er me, reign o'er me,  reign o'er me
eb|15-14-12-10-|----------------|----------------|---------------------|
Bb|------------|12-10-8-----7---|----------------|---------------------|
Gb|------------|----------------|9-7--5---4------|0h2------------------|
Db|------------|----------------|----------------|----5--4-2p0-2-0-----|
Ab|------------|----------------|----------------|----------------0-2-0|
Eb|------------|----------------|----------------|---------------------|

Love, reign o'er me, reign o'er me, reign o'er me, reign o'er me
  |Ebm7                |                               |
   Love,                            reign     o'er      
eb|--------------------|-------------------------------|
Bb|---------8---10^--8-|10-8-10^-8--10^-10p8--8--10^-8-|
Gb|-------/9--8-------9|----------9---------9--9-------|
Db|--------------------|-------------------------------|
Ab|--------------------|-------------------------------|
Eb|--------------------|-------------------------------|

|Bmaj7                          |Abm7                       |
 me,     whoa..................o'er me.......................
|-------------------------------|---------12----------------|
|-------------------------------|---------------------------|
|9----------------------------12|--12h14^---14(^)\-12-------|
|------------------------12h14--|14------------------12h14--|
|---------10h12-10h12-/14-------|-------------------------12|
|-------12----------------------|---------------------------|

[outro]
  |Bbsus4    |Bb7       |Bb       |Bb       |Ebm          |
   ......                                    Love!         
eb|----------|----------|---------|---------|0------------|
Bb|------17--|----------|---------|---------|0------------|
Gb|----------|16~-------|---------|---------|0------------|
Db|----/16-16|~---------|---------|---------|2------------|
Ab|14--------|----------|---------|---------|2------------|
Eb|----------|----------|---------|---------|0------------|
  |          |          |         |         |             |
 F|1---------|1---------|1--------|1--------|1------------|
 C|4---------|3---------|3--------|3--------|3------------|
Ab|3---------|1---------|3--------|3--------|2------------|
Eb|3---------|3---------|3--------|3--------|1------------|
Bb|1---------|1---------|1--------|1--------|1------------|
 F|----------|----------|---------|---------|-------------|

|Ebm Ebm Ebm Ebm Ebm Ebm Ebm Ebm Ebm              |Ebm  
                                                 
|0---0---0---0---0---0---0---0---0----------------|0----
|0---0---0---0---0---0---0---0---0----------------|0----
|0---0---0---0---0---0---0---0---0----------------|0----
|2---2---2---2---2---2---2---2---2----------------|2----
|2---2---2---2---2---2---2---2---2----------------|2----
|0---0---0---0---0---0---0---0---0------------xxxx|0----
|                                                 |     
|1---1---1---1---1---1---1---1---1----------------|1----
|3---3---3---3---3---3---3---3---3----------------|3----
|2---2---2---2---2---2---2---2---2----------------|2----
|1---1---1---1---1---1---1---1---1----------------|1----
|1---1---1---1---1---1---1---1---1----------------|1----
|-------------------------------------------------|-----
                                         [x=pick slide]


=============
litgo@aol.com

#----------------------------------PLEASE NOTE---------------------------------#
#This file is the author's own work and represents their interpretation of the #
#song. You may only use this file for private study, scholarship, or research. #
#------------------------------------------------------------------------------#
comments
print report bad tab
6 comments total. Showing first comments.
0 reply
bluesbreaker59 wrote on June 27 2006, 10:10 am

impressive. good tabs.

0 reply
Jibbs wrote on June 27 2006, 09:58 pm

Yes, impressive....does www.thewho.net know you stole this?

0 reply
crazynickman wrote on June 27 2006, 10:28 pm

awesomeness. And yes, jibbs we all know its from thewho.net, but it hasn't been posted till now. Would you rather not have it?
::IM SO PISSED THE FORUMS HAVE DIED!!::

I want to post or [tab]
guest
You may want to rate the tab now too:
select rating
Please do not post tabs as comments. Select "correction" instead!