Oops, an error
Loading. Please wait.

Quadrophenia Tab

by Who
ver1
ver1

Album

Whole song

Interactive

More versions @911Tabs.com
1,322 views 30 this week
no commentswrite comment
1 2 3 4 5
excellent!
x 1
Autoscroll
+/-
esc
set tempo
stop
Hey! There's an official Ultimate Guitar app which is ideal
for learning songs when you're away from computer. Get the app
WARNING: You are trying to view
                                    content from Ultimate-Guitar.com
                                    in an unauthorized application,
                                    which is prohibited.

                                    Please use an official Ultimate
                                    Guitar Tabs application for iPhone,
                                    iPad or Android to access legitimate
                                    chords, guitar, bass, and drum tabs
                                    from Ultimate-Guitar.com database.

                                    Type "ultimate guitar tabs" in Apple
                                    App Store's or Android Market's
                                    search to find the application.
Quadrophenia - The Who


Lead guitar 1: capo 1    (clean)
Lead guitar 2: standard tuning  (clean)
Lead guitar 3: tune down 1/2 step to Eb (Eb Ab Db Gb Bb Eb)  (overdriven)
Lead guitar 4: tune down 1/2 step to Eb (Eb Ab Db Gb Bb Eb)  (clean)
Lead guitar 5: tune down 1/2 step to Eb (Eb Ab Db Gb Bb Eb)  (overdriven)

Rhythm guitar 1: capo 1  (overdriven)
Rhythm guitar 2: standard tuning  (overdriven)
Rhythm guitar 3: tune down 1/2 step to Eb (Eb Ab Db Gb Bb Eb)  (overdriven)
Rhythm guitar 4: tune down 1/2 step to Eb (Eb Ab Db Gb Bb Eb)  (clean, reverb)

Acoustic guitar 1: capo 3
Acoustic guitar 2: capo 1

Acoustic and keyboard-arr-for-guitar chords
F5          x3356x
Eb5         x65346
Abmaj9      4tx6546

F           133211 and 133511
Dm          xx7765
Eb          xx1343
Ab         4tx1144
Bb          x1333x
C           x3555x
Db          x4666x

Abmaj7     (4t)x6543
Gaug        xx5443
G          (3)x5433
Cm          xx5433
Cm/Bb      (6)x5433
Cm7         x31313 or x35343 or x35346 (acoustic)
Abmaj9      464546  4x6546 (acoustic)

E           x7999x
E7          x7675x
Am         5tx7555
Am6        5tx7575

Ebmsus4     xx1344
Ebmsus4/Db  x41344
Ebm7        xx1342
Ebm7sus2    xx1341
Cbmaj7      xx4342
Cbmaj7b5    xx4341
Abm7        4tx1144



||[keyboard]                                 ||
||:F   Dm Eb|     Ab Bb|   C Db|        Eb F:||
||[acoustic 1]                               ||
||:D5.......|D5........|D5.....|D5..........:||
||[ld gtr 1]                                 ||
||----------|----------|-------|----19-17-15-||
||----------|----------|-------|-------------||
||----------|----------|-------|-------------||
||----------|----------|-------|-------------||
||----------|----------|-------|-------------||
||----------|----------|-------|-------------||

|            Dm Eb |                       Ab Bb|    
|[acoustic 1]                                   |
|D5.....           |D5....                      |
|[ld gtr 1]                                     |
|-17^(19)-15^(16)---|^(18)17-15-17-15------------|
|----------------17|----------------17-15--17-17|
|------------------|----------------------------|
|------------------|----------------------------|
|------------------|----------------------------|
|------------------|----------------------------|

|                                                 C  Bb      |          Eb F|
|[acoustic 1]                                                               |
|D5...                                                       |D5...         |
|[ld gtr 1]                                                                 |
|15h19p15--15h19p15--15h19p15--15h19p15--15h19p15--15h20p15--|15--15h17--20-|
|---------17--------17---------17--------17---------17--------17|--17-----17---|
|----------------------------------------------------------------|--------------|
|----------------------------------------------------------------|--------------|
|----------------------------------------------------------------|--------------|
|----------------------------------------------------------------|--------------|
|[rhythm gtr 1]                                                             |
|------------------------------------------------------------|--------------|
|------------------------------------------------------------|---------9--9-|
|------------------------------------------------------------|---------9--9-|
|------------------------------------------------------------|---------9--9-|
|------------------------------------------------------------|---------7--7-|
|------------------------------------------------------------|--------------|


|                   Dm  Eb|                 Ab Bb|                     C Db|
|[acoustic 1]                                                              |
|D5..........             |          %           |             %           |
|[ld gtr 1]                                                                |
|17^-15--15---17^-15-17-15|17^-15---15-------12--|-------------------------|
|------17------------17-15|----15-17--17---15--15|15^(17)---^(17)15-15-12--|
|-------------------------|----------------------|-----------------------14|
|-------------------------|----------------------|-------------------------|
|-------------------------|----------------------|-------------------------|
|-------------------------|----------------------|-------------------------|
|[rhyth gtr 1]                                                             |
|---------------------4--2|-------------------3-5|-------------------------|
|9--------------------5--3|-------------------3-5|-------------------------|
|9--------------------6--2|-------------------0-2|---------------------4-5-|
|9--------------------6--0|-------------------0-2|---------------------4-5-|
|7------------------------|---------------------0|---------------------6-7-|
|-------------------------|-------------------3--|-------------------------|

|                    Eb  F|                  Dm Eb|                   Ab Bb|
|[acoustic 1]                                                              |
|          %              |            %          |             %          |
|[ld gtr 1]                                                                |
|------------------12-----|-----------------------|------------------------|
|--------------------14-12|15^(17)--^(17)15\p13-15|15^(17)---^(17)15\p13-15|
|--------12-14/16-0-------|-----------------------|------------------------|
|14-12-14-----------------|-----------------------|------------------------|
|-------------------------|-----------------------|------------------------|
|-------------------------|-----------------------|------------------------|
|[rhyth gtr 1]                                                             |
|-------------------------|-------------------4--2|---------------------3-5|
|--------------------9--9-|-------------------5--3|---------------------3-5|
|------------------7-9--9-|-------------------6--2|---------------------0-2|
|------------------7-9--9-|-------------------6--0|---------------------0-2|
|------------------5-7--7-|-----------------------|-----------------------0|
|-------------------------|---------------------0-|---------------------3--|


|                    C Db|                    Eb  F|                Dm  Eb|
|[acoustic 1]                                                             |
|         %              |            %            |D5...........         |
|[ld gtr 1]                                                               |
|------------------------|-------------------------|----------------------|
|15^(17)---^(17)15\p13-15|15^(17)---^(17)15\---------|----------------------|
|------------------------|------------------14p12--|--12~--14^-14-12---14^|
|------------------------|-----------------------14|14---14---------14----|
|------------------------|-------------------------|----------------------|
|------------------------|-------------------------|----------------------|
|[rhyth gtr 1]                                                            |
|------------------------|------------------2-2---0|------------------4--2|
|------------------------|------------------3-3---0|------------------5--3|
|---------------------4-5|------------------2-2---1|------------------6--2|
|---------------------4-5|------------------0-0---2|------------------6--0|
|---------------------6-7|------------------------2|----------------------|
|------------------------|----------------------0-0|----------------------|

|                     Ab  Bb|                       C  Db |
|[acoustic 1]                                             |
|           %               |              %              |
|[ld gtr 1]                                               |
|---------------------------|-----------------------------|
|-------------------------12|--12--------12-----12-15^(17)|
|14-12--14^-14-12---12--12-|12--12-12-14--12-14----------|
|-----14---------14---------|-----------------------------|
|---------------------------|-----------------------------|
|---------------------------|-----------------------------|
|[rhyth gtr 1]                                            |
|------------------------3--|--------------------------7-8|
|------------------------3--|--------------------------7-8|
|------------------------0-2|--------------------------4-5|
|------------------------0-2|--------------------------4-5|
|--------------------------0|-----------------------------|
|------------------------3--|-----------------------------|

|                    Eb  |Eb         |     |    |    |
|[acoustic 1]                                        |
|D5........              |C          | ....|..  |    |
|[ld gtr 1]                                          |
|------------------------|-----------|-----|----|----|
|---^(17)15\-------------|-----------|-----|----|----|
|------------14-12---12--|-----------|-----|----|----|
|------------------14--14|12h14------|-----|----|----|
|------------------------|-----------|-----|----|----|
|------------------------|-----------|-----|----|----|
|[rhyth gtr 1]                        [out]          |
|--------------------10--|10---------|-----|----|----|
|--------------------10--|10---------|-----|----|----|
|--------------------7---|7----------|-----|----|----|
|--------------------7---|7----------|-----|----|----|
|------------------------|-----------|-----|----|----|
|------------------------|-----------|-----|----|----|

|Abmaj7    |               |Gaug    |G           |Cm           |Cm/Bb      |
|[acoustic 1]                                                            |
|         |               |        |            |             |          |
|[ld gtr 1]                                                              |
|----15-14|15---14h15p14--|--14----|----14-15-14|-----14-15-14|----17^-17|
|---------|-------------15|17------|------------|--15---------|15--------|
|---------|---------------|--------|------------|-------------|----------|
|---------|---------------|--------|------------|-------------|----------|
|---------|---------------|--------|------------|-------------|----------|
|---------|---------------|--------|------------|-------------|----------|

|Abmaj7              |                     Eb Eb|
|[acoustic 1]                                   |
|                    |                          |
|[ld gtr 1]                                     |
|17-17p15--17^(19)---|17^(19)-17^(19)-----------|
|--------------------|--------------------------|
|--------------------|--------------------------|
|--------------------|--------------------------|
|--------------------|--------------------------|
|--------------------|--------------------------|
|                               [rhyth gtr 1 in]|
|--------------------|----------------------2-2-|
|--------------------|----------------------3-3-|
|--------------------|----------------------2-2-|
|--------------------|----------------------0-0-|
|--------------------|--------------------------|
|--------------------|--------------------------|


|Eb    Cm7|Abmaj9  |Eb   Cm7 |Abmaj9  |
|[acoustic 1]                         |
|C5 ...Am7|Fmaj9    |C5   Am7 |Fmaj9    |
|[ld gtr 1 tacit]                     |
|[rhyth gtr 1]                   [out]|
|2------2-|3----2-2|2-~----2-|3--~----|
|3------0-|3----3-3|3-~----0-|3--~----|
|2------2-|0----2-2|2-~----2-|0--~----|
|0------0-|0----0-0|0-~----0-|0--~----|
|-------2-|--------|--------2-|--------|
|---------|3-------|----------|3--~----|


|Abmaj7   |            |Gaug     |G             |
|[acoustic 1]                                   |
|Fmaj7     |            |Eaug      |E             |
|[ld gtr 1]                                     |
|---------|------------|---------|--------------|
|--8-7-8p7|------------|---------|14-14----15-17|
|---------|7---7/9--11-|/15-15h16|--------------|
|---------|------------|---------|--------------|
|---------|------------|---------|--------------|
|---------|------------|---------|--------------|

|Cm            |Cm/Bb   |Abmaj7   |         |
|[acoustic 1]                               |
|Am            |Am/G    |Fmaj7      |         |
|[ld gtr 1]                                 |
|--------------|--21-19-|---------|--21-19--|
|17-17^(19)----|--------|19-------|-------19|
|--------------|--------|---------|---------|
|--------------|--------|---------|---------|
|--------------|--------|---------|---------|
|--------------|--------|---------|---------|
|                           [rhyth gtr 1 in]|
|--------------|-------|----------|------2-2|
|--------------|-------|----------|------3-3|
|--------------|-------|----------|------2-2|
|--------------|-------|----------|------0-0|
|--------------|-------|----------|---------|
|--------------|-------|----------|---------|

|Eb      Cm7 |Abmaj9                         |
|[acoustic 1]                                |
|C5.....Am7  |Fmaj9................          |
|[ld gtr 1]                                  |
|--17--------|17^(19)-17^(19)-17^(19)-17-16--|
|17^--17^----|----------------------------17|
|------------|-------------------------------|
|------------|-------------------------------|
|------------|-------------------------------|
|------------|-------------------------------|
|[rhyth gtr 1]                               |
|2---------2-|3---------------------------2-2|
|3---------0-|3---------------------------3-3|
|2---------2-|0---------------------------2-2|
|0---------0-|0---------------------------0-0|
|----------3-|-------------------------------|
|------------|3------------------------------|


|Eb               Cm7 |Abmaj9             |
|[acoustic 1]                             |[out]
|C5..............Am7  |Fmaj9..........     |
|[ld gtr 1]                               |
|---------------------|-----17^-17^-17-16-|
|(17)^-17^---17^\-15--|-------------------|
|---------------------|-------------------|
|---------------------|-------------------|
|---------------------|-------------------|
|---------------------|-------------------|
|[rhyth gtr 1]                       [out]|
|2------------------2-|3------------------|
|3------------------0-|3------------------|
|2------------------2-|0------------------|
|0------------------0-|0------------------|
|-------------------2-|-------------------|
|---------------------|3------------------|
|[rhyth gtr 2 in]                         |
|---------------------|-------------------|
|---------------------|-------------------|
|---------------------|-------------------|
|---------------------|-------------------|
|---------------------|-------------------|
|---------------------|------------------0|

[guitar change to no capo, standard tuning; acoustic out]
|E          |           |E        |         |E         |
|[ld gtr 1]                                       [out]|
|13---11----|10---8-----|6---4----|3---1----|----------|
|-----------|-----------|---------|---------|4----3----|
|-----------|-----------|---------|---------|----------|
|-----------|-----------|---------|---------|----------|
|-----------|-----------|---------|---------|----------|
|-----------|-----------|---------|---------|----------|
|[rhtyh gtr 2]                                         |
|0----------|-----------|0-----0--|---------|0---------|
|0----------|-----------|0------0-|---------|0---------|
|1----------|--1-2/4-2-1|1-------1|---------|1---------|
|2----------|--2-4/6-4-2|2--------|2--------|2---------|
|2----------|-----------|2--------|---------|2---------|
|-----------|-----------|0--------|---------|0---------|
|                       |[horn arr for gtr] |     
|                      e|---------|---------|     
|                      b|---------|---------|     
|                      g|---------|---------|     
|                      d|---------|---------|     
|                      a|---------|---------|     
|                      e|0--2--4--|4--2--0--|     

|                |E      |      |E      |        |D       |             |
|[rhtyh gtr 2]                                                          |
|---0------------|---0---|------|0------|-----0-0|-----0-0|0-0-0-0-0-0-0|
|--/12-10--9-10-9|10---9-|------|0-0-0-0|-0-0-0-0|-0-0-0-0|0-0-0-0-0-0-0|
|--/13-11--9-11-9|11---9-|------|1-1-1-1|/2-2-2-2|/4-4-4-2|2---1-1-2-2/4|
|----------------|-------|------|2-2-2-2|/4-4-4-4|/6-6-6-4|4---2-2-4-4/6|
|----------------|-------|------|2-2-2-2|--------|--------|-------------|
|----------------|-------|------|0------|--------|--------|-------------|
|                |[horn]        |
|               e|-------|------|
|               b|-------|------|
|               g|-------|------|
|               d|-------|------|
|               a|-------|------|
|               e|0--2--4|4-2-0-|

|E       |         |E/D      |       |E        |     |     |     |
|[rhtyh gtr 2]                                                   |
|0-------|------0-0|0---0--0-|----0--|---------|-----|-----|-----|
|0---0---|-----/5-5|5-5-7--7/|9--10-/|12~------|-----|-----|-----|
|4\2-2/4-|---------|---------|-------|---------|-----|-----|-----|
|6\4-4/6-|---------|---------|-------|---------|-----|-----|-----|
|--------|---------|---------|-------|---------|-----|-----|-----|
|--------|---------|---------|-------|---------|-----|-----|-----|
|                                    |[piano low E]  |     |     |
|                                   E|0---0----|0--0-|-0-0-|-0-0-|
|                                    |[horn]   |     |           |
|                                   e|4---4--5-|7----|-----|-----|
|                                   b|--7------|-----|-----|-----|
|                                   g|---------|-----|-----|-----|
|                                   d|---------|-----|-----|-----|
|                                   a|---------|-----|-----|-----|
|                                   e|---------|-----|-----|-----|

  [violin arr for guitar]  [implied chords]           x2
 ||:E     /       E7     /  |Am    /     Am6   /    :||
e||-------------------------|------------------------||
b||----------10---12-10-12--|13-12-13-12-------------||
g||.13-11-13---------------9|------------14-13-14-10.||
d||.------------------------|-----------------------.||
a||-------------------------|------------------------||
e||-------------------------|------------------------||
 ||[piano arr for guitar]                            ||
e||-0--------------0--------|-0-----------0----------||
b||-------------------------|------------------------||
g||.------------------------|-----------------------.||
d||.------------------------|-----------------------.||
a||-------------------------|------------------------||
e||-------------------------|------------------------||

  [violin 1]                                         x2
 ||:E            E7        |Am          Am6        :||
e||------------------------|------------------------||
b||----------10--12-10-12--|13-12-13-12-------------||
g||.13-11-13--------------9|------------14-13-14-10.||
d||.-----------------------|-----------------------.||
a||------------------------|------------------------||
e||------------------------|------------------------||
 ||[violin 2]                                       ||
e||------------------------|------------------------||
b||-----------7---7--9--7--|10-9--10-9--------------||
g||.9--8--9----------------|------------11-9--11-8-.||
d||.----------------------9|-----------------------.||
a||------------------------|------------------------||
e||------------------------|------------------------||

[violins 1 & 2]
|E                       |E                       |
|12-12-12-12-11-11-11-11-|------------------------|
|------------------------|15-15-15-15-14-14-14-14-|
|13-11-13-13-13-11-13-13-|13-11-13-13-13-11-13-13-|
|------------------------|------------------------|
|------------------------|------------------------|
|------------------------|------------------------|

|E                       |E                       |
|------------------------|------------12-12-12-12-|
|13-13-13-13-12-12-12-12-|10-10-10-10-------------|
|13-11-13-13-13-11-13-13-|13-11-13-13-13-11-13-13-|
|------------------------|------------------------|
|------------------------|------------------------|
|------------------------|------------------------|

  [Guitar - no capo]                   x4              x3
||:E      E7        |Am        Am6    :||:E     |     :||      |      |
||[ld gtr 2]                           ||              ||             |
||------------------|------------------||-------|------||------|------|
||----------3---3---|3h5-3-5-3---------||-------|------||------|------|
||.4-2-4--5---5---4-|----------5-4-5-2.||.4---2-|4---2.||4-----|------|
||.-----------------|-----------------.||.------|-----.||------|------|
||------------------|------------------||-------|------||------|------|
||------------------|------------------||-------|------||------|------|

   |E      E7     |Am     Am6     |E        E7    |Am       A6      |
   |[ld gtr 2]                                                      |
---|--------------|---------------|---------------|-----------------|
---|--------------|---------------|---------------|--------------19^|
---|--------------|---------------|---------------|-----------------|
---|--------------|---------------|---------------|-----------------|
---|--------------|---------------|---------------|-----------------|
---|--------------|---------------|---------------|-----------------|
   |[rhyth gtr 2]                                                   |
---|--------------|---------------|---------------|-----------------|
---|12-~----------|13-----10---x-x|12--~-------x-x|13-------10---x-x|
---|9--~----------|9------9----x-x|9---~-------x-x|9--------9----x-x|
---|9--~----------|------------x-x|9---~-------x-x|--------------x-x|
---|--------------|---------------|---------------|-----------------|
0-0|--------------|------------0-0|--------------0|--------------0-0|

|E    E7     |Am   Am6     |E    E7   |Am    Am6     |E   E7 |Am  Am6    |
|[ld gtr 2]                                                        [out] |
|19----------|-----19^\-17-|19--------|-----19^19^17-|19~----|-----------|
|------------|-----19^\----|----------|--------------|-------|-----------|
|------------|-------------|----------|--------------|-------|-----------|
|------------|-------------|----------|--------------|-------|-----------|
|------------|-------------|----------|--------------|-------|-----------|
|------------|-------------|----------|--------------|-------|-----------|
|[rhyth gtr 2]                                                           |
|------------|-------------|----------|--------------|-------|-----0--0--|
|12-~-----x-x|13---10---x-x|12--~--x-x|13----10------|-------|-----12-12-|
|9--~-----x-x|9----9----x-x|9---~--x-x|9-----9-------|-------|-----------|
|9--~-----x-x|----------x-x|9---~--x-x|--------------|-------|-----------|
|------------|-------------|----------|--------------|-------|-----------|
|------------|----------0-0|---------0|--------------|-------|-----------|

|E              |E                 |             |              |
|[rhtyh gtr 2]                                                  |
|0--0-----0--0--|0--0--0--0--0--0--|0--0--0--0---|-------0-0-0--|
|12-10/12-12----|12-13-17-15-13-12-|12-10-9---0--|-------0-0-0--|
|---------------|------------------|-----------4-|-----2/4-4-4--|
|---------------|------------------|------------2|-----4/6-6-6--|
|---------------|------------------|-------------|2-------------|
|---------------|------------------|-------------|-0------------|

                                                         [horn in]
|E           |          |               |              |      |        |
|[rhyth gtr 2]                           [tremelo pick]                |
|---------0--|------0---|---------------|--------------|------|--------|
|0---0----0--|------0---|------------0--|--------------|------|--------|
|4-(4)^\^\-4^|\--4^\-4^\|------------1--|-1/2/4/6/4/2/1|------|--------|
|------------|----------|/7--6h7p6-4-2--|-2/4/6/7/6/4/2|2/2/2-|--------|
|------------|----------|----------0----|--------------|------|--------|
|------------|----------|---------------|--------------|------|--------|
                                                       |[horn]|        |
                                                       |--4---|5-7-----|
                                                       |------|----7--5|
                                                       |------|--------|
                                                       |------|--------|
                                                       |------|--------|
                                                       |------|--------|

[piano only and horn only]
|Ab             |          |         |            |


[Guitar change: tune down to Eb (Eb Ab Db Gb Bb Eb)]
|Ab             |Ab       |Ab           |     |Ab        |     |     |
|[rhyth gtr 3]                                                       |
|---------------|---------|-------------|-----|----------|-----|-----|
|-------2h3---2h|3--2h3---|-------------|-----|----------|-----|-----|
|-------2--4--2h|4--2h4---|2----2-----2-|--2-2|----------|-----|-----|
|---------------|---------|2h4--2h4---2h|4-2-4|p2--------|-----|-----|
|---------------|---------|-------------|-----|----2h4-2-|0----|-----|
|---------------|---------|-------------|-----|----------|-----|-----|
|[rhyth gtr 4]                                                       |
|---------------|---------|-------------|-----|----------|-----|-----|
|---------3-----|3---3----|--3----3--3--|-3-3-|--3--3--3-|-----|-----|
|---------2-----|2---2----|--2----2--2--|-2-2-|--2--2--2-|-----|-----|
|---------------|---------|-------------|-----|----------|-----|-----|
|---------------|---------|-------------|-----|----------|-----|-----|
|---------------|---------|-------------|-----|----------|-----|-----|

 [6/8]
[piano arr for guitar]
 ||:Ab    :||
e||--------||
b||-9--9---||
g||.-8--8-.||
d||.--6--6.||
a||--------||
e||--------||

[6/8]
    |[acoustic 2 in]                                         |
(Db)|Dmsus4   |. |. |...        |Dmsus4/C    |.....     |...  |
    |[ld gtr 3]                                              |
----|---------|--|--|----------|------------|----------|-----|
----|---------|--|--|----------|------------|----------|-----|
----|---------|--|--|----------|------------|----7--9-9|-----|
----|7/9------|--|--|----9\---5|5h7---------|7/9-------|-----|
----|---------|--|--|------5h7-|------------|----------|-----|
----|---------|--|--|----------|------------|----------|-----|

[6/8]
|[acoustic 2]                                                            |
|......            |Dmsus4 |.......            |.........               |
|[ld gtr 3]                                                              |
|------------------|7-------|---^(10)9\-7-------|------------------------|
|------------------|--------|-------------8-----|----^(12)10\-(8)h10p8p10|
|-----^(11)9\-9-7/9|--------|--------------9--7h|9-----------------------|
|------------------|--------|-------------------|------------------------|
|------------------|--------|-------------------|------------------------|
|------------------|--------|-------------------|------------------------|

[6/8]
|[acoustic 2]             |
|........     |Dsus4/C  |
|[ld gtr 3]               |
|-------------|------12-12|
|--------12-12|12---------|
|12~----------|-----------|
|---14--------|-----------|
|-------------|-----------|
|-------------|-----------|

[6/8]
|[acoustic 2]                                                            |
|.......          |........          |.....                              |
||[ld gtr 3]                                                             |
|12-12-12-12-12-12|12-12-12-/17-17-17|15h17-15h17-15h17-15h17-15h17-15h17|
|-----------------|------------------|-----------------------------------|
|-----------------|------------------|-----------------------------------|
|-----------------|------------------|-----------------------------------|
|-----------------|------------------|-----------------------------------|
|-----------------|------------------|-----------------------------------|

[6/8]
|Ebm7*  |       |       |       |Cbmaj7 |       |Abm7       |            |
|[acoustic 2]                                                            |
|1-1-0-0|1-1-0-0|1-1-0-0|1-1-0-0|1-1-0-0|1-1-0-0|3-3-3--3---|3--3--3--3--|
|3-3-3-3|3-3-3-3|3-3-3-3|3-3-3-3|3-3-3-3|3-3-3-3|3-3-3--3---|3--3--3--3--|
|2-2-2-2|2-2-2-2|2-2-2-2|2-2-2-2|2-2-2-2|2-2-2-2|0-0-0--0---|0--0--0--0--|
|0-0-0-0|0-0-0-0|0-0-0-0|0-0-0-0|3-3-3-3|3-3-3-3|0-0-0--0---|0--0--0--0--|
|-------|-------|-------|-------|-------|-------|-----------|------------|
|-------|-------|-------|-------|-------|-------|4-4-4--4---|4--4--4--4--|
|[ld gtr 3]                                                              |
|15-14--|12--10-|-------|-------|-------|-------|-----------|------------|
|-------|-------|12--10-|8---7--|5------|-------|-----------|------------|
|-------|-------|-------|-------|----7--|5---4--|2-----0h2--|------------|
|-------|-------|-------|-------|-------|-------|----5------|2h4----2p0h2|
|-------|-------|-------|-------|-------|-------|-----------|------------|
|-------|-------|-------|-------|-------|-------|-----------|------------|
|[ld gtr 4]                                                              |
|12-10--|-------|-------|-------|-------|-------|-----------|------------|
|-------|12--10-|8---7--|-------|-------|-------|-----------|------------|
|-------|-------|-------|9---7--|5---4--|2------|-----------|------------|
|-------|-------|-------|-------|-------|----5--|4---2------|--0---0h2---|
|-------|-------|-------|-------|-------|-------|-----------|------------|
|-------|-------|-------|-------|-------|-------|-----------|------------|
|[ld gtr 5]                                                        [out] |
|19-17--|15--14-|12--10-|-------|-------|-------|-----------|------------|
|-------|-------|-------|12-10--|8--7---|5------|-----------|------------|
|-------|-------|-------|-------|-------|----7--|5---4------|------------|
|-------|-------|-------|-------|-------|-------|-----------|------------|
|-------|-------|-------|-------|-------|-------|-----------|------------|
|-------|-------|-------|-------|-------|-------|-----------|-----------\|
 [*Dm7 for acoustic alternates between Dm7sus2]

[6/8]
|Ebm7      |             |                   |       |
|[acoustic 2]                                        |
|1--1--0-0-|1--1--0---0--|1---1---0---0------|1-1-0-0|
|3--3--3-3-|3--3--3---3--|3---3---3---3------|3-3-3-3|
|2--2--2-2-|2--2--2---2--|2---2---2---2------|2-2-2-2|
|0--0--0-0-|0--0--0---0--|3---3---3---3------|3-3-3-3|
|----------|-------------|-------------------|-------|
|----------|-------------|-------------------|-------|
|[ld gtr 3]                                          |
|15--12h14-|12---10------|-------------------|-------|
|----------|-------------|12------10---------|8--7---|
|----------|-------------|-------------------|-------|
|----------|-------------|-------------------|-------|
|----------|-------------|-------------------|-------|
|----------|-------------|-------------------|-------|
|[ld gtr 4]                                          |
|12---10---|-------------|-------------------|--12---|
|----------|12---14^(15)\|14^(15)-14^(15)\---|-------|
|----------|-----14^(16)\|14^(16)-14^(16)\-12|-------|
|----------|-------------|-------------------|14-----|
|----------|-------------|-------------------|-------|
|----------|-------------|-------------------|-------|

[6/8]
|Cbmaj7               |                 |Abm7        |               |
|[acoustic 2]                                                        |
|1------1----0----0---|1----1----0---0--|3--3--3--3--|3---3---3---3--|
|3------3----3----3---|3----3----3---3--|3--3--3--3--|3---3---3---3--|
|2------2----2----2---|2----2----2---2--|0--0--0--0--|0---0---0---0--|
|3------3----3----3---|3----3----3---3--|0--0--0--0--|0---0---0---0--|
|---------------------|------------------|------------|---------------|
|---------------------|------------------|3--3--3--3--|3---3---3---3--|
|[ld gtr 3]                                                          |
|---------------------|-----------------|------------|---------------|
|5--------------------|-----------------|------------|---------------|
|------------7--------|5---------4------|------------|------------2-2|
|---------------------|-----------------|5/7---5-----|4-----2-----2-2|
|---------------------|-----------------|------------|------------0-0|
|---------------------|-----------------|------------|---------------|
|[ld gtr 4]                                                     [out]|
|---------------17^-15|----17^-17-15-17^|15----15--17|---17--17------|
|--15h17-17-17--------|17---------------|--17--------|---------17\---|
|---------------------|-----------------|------------|---------------|
|---------------------|-----------------|------------|---------------|
|---------------------|-----------------|------------|---------------|
|---------------------|-----------------|------------|---------------|

[loose time]
|Abm7                   |                     |                      |
|[lead gtr 3]                                                        |
|-----------------------|---------------------|-----------12-12-15-15|
|-----------------------|---------------------|---------12-----------|
|2--------------------7-|----12-14-14^(16)\/\/|^(14)12\--------------|
|2------------5---7/9---|9/14-----------------|----------------------|
|0-----0---5/7----------|---------------------|----------------------|
|-----------------------|---------------------|----------------------|
                                        [vibrato bar]

|[lead gtr 3]                              |
|15h17-15h17-15/17-17/19-19/19/19/19/19/19-|
|------------------------------------------|
|------------------------------------------|
|------------------------------------------|
|------------------------------------------|
|------------------------------------------|

|[lead gtr 3]                              
|                                       |
|17h19-17h19-17h19-17h19-17h19-17h19-19-|------------------|
|---------------------------------------|------------------|
|---------------------------------------|------------------|
|---------------------------------------|------------------|
|---------------------------------------|------------------|
|---------------------------------------|xxxxxxxxxxxxxxx---|
                                        [pick slide]

|Ebm                                        |
|[ld gtr 3]
|0----------------------0-0-0---------------|
|0----------------------0-0-0---------------|
|4-----------0h1-0h1-0h1--------------------|
|2-2-2-2-----2---2---2----------------------|
|2-2-2-2-----2---2---2----------------------|
|0-0-0-0-----0---0---0----------------------|
|                                           |
|[horn synth]                               |
|-------------------------------------------|
|-17----15----------------------------------|
|--------------14-----11-----------------9--|
|-------------------------------------------|
|-------------------------------------------|
|-------------------------------------------|
comments
We did not receive enough feedback on this tab! Please rate:
print report bad tab
1 2 3 4 5
I want to post or [tab]
guest
You may want to rate the tab now too:
select rating
Please do not post tabs as comments. Select "correction" instead!