Oops, an error
Loading. Please wait.

Whos Next Tab

by Who
22,720 views 6 this week
8 commentsread comments
1 2 3 4 5
excellent!
x 8
Autoscroll
+/-
esc
set tempo
stop
Contributor
Difficulty
advanced
Hey! There's an official Ultimate Guitar app which is ideal
for learning songs when you're away from computer. Get the app
WARNING: You are trying to view
                                    content from Ultimate-Guitar.com
                                    in an unauthorized application,
                                    which is prohibited.

                                    Please use an official Ultimate
                                    Guitar Tabs application for iPhone,
                                    iPad or Android to access legitimate
                                    chords, guitar, bass, and drum tabs
                                    from Ultimate-Guitar.com database.

                                    Type "ultimate guitar tabs" in Apple
                                    App Store's or Android Market's
                                    search to find the application.
                                              Who's Next?
                                                The Who
                                                 1971


All songs were tabbed by Matt Montoya


Track List:

01. Baba O'Riley           (Pete Townshend)

02. Bargain                (Pete Townshend)

03. Love Ain't For Keeping (Pete Townshend)

04. My Wife                (John Entwistle)

05. The Song Is Over       (Pete Townshend)

06. Getting In Tune        (Pete Townshend)

07. Goin' Mobile           (Pete Townshend)

08. Behind Blue Eyes       (Pete Townshend)

09. Won't Get Fooled Again (Pete Townshend)


____________________________________________________________________________________________________

To find a specific song, press Ctrl+f and type in the song of request
____________________________________________________________________________________________________

Tablature Legend:

/=slide up
\=slide down
b=bend
r=refrain bended string
p=pulloff
h=hammeron
()=optional note
X=muted string
d=downstroke
u=upstroke
~=shake frequently or use wammy bar
____________________________________________________________________________________________________

The Who:

Pete Townshend - Guitar

Roger Daltry - Lead Vocals

John Entwistle - Bass/Lead Vocals in "My Wife"

Keith Moon - Drums/Percussion

____________________________________________________________________________________________________
____________________________________________________________________________________________________
____________________________________________________________________________________________________


Song: Baba O'Riley


Intro Sythesizer Tab for Guitar:
|-----------------------------------------------------------------|
|---------6-6-------------6-6-------------6-6-------------6-6-----|
|-----5-5-----5-5-----5-5-----5-5-----5-5-----5-5-----5-5-----5-5-|
|-3-3-------------3-3-------------3-3-------------3-3-------------|
|-----------------------------------------------------------------|
|-----------------------------------------------------------------|

Intro (Where the Guitar comes in) (01:48):
  F      C   A#  F      C   A#  F      C   A#  F      C   A#  F      C   A#
|--------------|--------------|--------------|--------------|--------------|
|--------------|--------------|--------------|--------------|--------------|
|--------5---3-|--------5---3-|--------5---3-|--------5---3-|--------5---3-|
|-3------5---3-|-3------5---3-|-3------5---3-|-3------5---3-|-3------5---3-|
|-3------3---1-|-3------3---1-|-3------3---1-|-3------3---1-|-3------3---1-|
|-1------------|-1------------|-1------------|-1------------|-1------------|

  C      C      C
|----------------------|
|----------------------|
|-5------5------5------|
|-5------5------5------|
|-3------3------3------|
|----------------------|

Chords:

C     F          C          A#
Don't Cry, Don't raise your eye
     F    A#      G
It's only teenage wasteland


F            C  A#   F                    C     A#
  Sally take my hand,  we'll travel south cross land
F                C    A#                 F         C   A#
Put out the fire, and don't look past my shoulder
F            C  A#   F                C   A#
  The exodus is here,  the happy ones are near
F                 C    A#                F     C   A#
Let's get together,  before we get much older

Guitar Solo:
|-13-----13-----------------------13-15-13-15b17-13-13-------|
|------------13--13h15--15-15--------------------------15-13-|
|------------------------------------------------------------|
|------------------------------------------------------------|
|------------------------------------------------------------|
|------------------------------------------------------------|

|-------------------------------------------------------------|
|-15-13-15-13-------------------------------------------------|
|----------------15b17-15b17-15b17-15b17-15b17-15b17-15b17-14-|
|-------------------------------------------------------------|
|-------------------------------------------------------------|
|-------------------------------------------------------------|

|----------------------------------|
|----------------------------------|
|-15b17--17--17--17--15-14---------|
|----------------------------------|
|----------------------------------|
|----------------------------------|

        F         C   A#
Teenage wasteland
                  F         C   A#
It's only teenage wasteland
        F         C   A#
Teenage wasteland Oh, yeah
    C   F         C   A#
Teenage wasteland

They're all wasted!
|-------------------------------------|
|-------------------------------------|
|-----------5------5------3------3----|
|-----------5------5------3------3----|
|-----------3------3------1------1----|
|-------------------------------------|

2nd Guitar Solo:
 
 Guitar I
|-12--13--15--12--13--15--12-13-15----12--13--15--12--13--15--12-13-15--|
|-----------------------------------------------------------------------|
|-----------------------------------------------------------------------|
|-----------------------------------------------------------------------|
|-----------------------------------------------------------------------|
|-----------------------------------------------------------------------|
|                                                                       |
|                                                                       |
|Guitar II                                                              |
| C                                   A#                                |
|-----------------------------------------------------------------------|
|-----------------------------------------------------------------------|
|-5-----------------------------------3---------------------------------|
|-5-----------------------------------3---------------------------------|
|-3-----------------------------------1---------------------------------|
|-----------------------------------------------------------------------|


 Guitar I
|-12--13--15--12--13--15--12-13-15----11--13--15--11--13--15--11-13-15--|
|-----------------------------------------------------------------------|
|-----------------------------------------------------------------------|
|-----------------------------------------------------------------------|
|-----------------------------------------------------------------------|
|-----------------------------------------------------------------------|
|                                                                       |
|                                                                       |
|Guitar II                                                              |
| F                                   D#                                |
|-----------------------------------------------------------------------|
|-6-----------------------------------4---------------------------------|
|-5-----------------------------------3---------------------------------|
|-3-----------------------------------1---------------------------------|
|-----------------------------------------------------------------------|
|-----------------------------------------------------------------------|


 Guitar I
|-12-13-12-13-12-13-12-13-12-13-12-13-12-13-12----|
|----------------------------------------------13-|
|-------------------------------------------------|
|-------------------------------------------------|
|-------------------------------------------------|
|-------------------------------------------------|
|                                                 |
|                                                 |
|Guitar II                                        |
| C                                               |
|-------------------------------------------------|
|-------------------------------------------------|
|-5-----------------------------------------------|
|-5-----------------------------------------------|
|-3-----------------------------------------------|
|-------------------------------------------------|


 Guitar I
|-12-13-12-13-12-13-12-13-12-13-12-13-15-12-13-13-|
|-------------------------------------------------|
|-------------------------------------------------|
|-------------------------------------------------|
|-------------------------------------------------|
|-------------------------------------------------|
|                                                 |
|                                                 |
|Guitar II                                        |
| A#                                              |
|-------------------------------------------------|
|-------------------------------------------------|
|-3-----------------------------------------------|
|-3-----------------------------------------------|
|-1-----------------------------------------------|
|-------------------------------------------------|


Guitar I
|-15-13-15-13-15-13-15-13-15-13-15-13-15-13-|
|-------------------------------------------|
|-------------------------------------------|
|-------------------------------------------|
|-------------------------------------------|
|-------------------------------------------|
|                                           |
|                                           |
|Guitar II                                  |
| F                                         |
|-------------------------------------------|
|-6-----------------------------------------|
|-5-----------------------------------------|
|-3-----------------------------------------|
|-------------------------------------------|
|-------------------------------------------|

 Guitar I
|-11-13-11-13-11-13-11-13-11-13-11-13-11-13-11-13-|
|-------------------------------------------------|
|-------------------------------------------------|
|-------------------------------------------------|
|-------------------------------------------------|
|-------------------------------------------------|
|                                                 |
|                                                 |
|Guitar II                                        |
| D#                                              |
|-------------------------------------------------|
|-4-----------------------------------------------|
|-3-----------------------------------------------|
|-1-----------------------------------------------|
|-------------------------------------------------|
|-------------------------------------------------|


 Guitar I
|-11\10-------------------------------------------------------------|
|-------13------11b13-11b13-11b13---13-13-13-13-13-13-13-13-15-11\--|
|-------------------------------------------------------------------|
|-------------------------------------------------------------------|
|-------------------------------------------------------------------|
|-------------------------------------------------------------------|
|                                                                   |
|                                                                   |
|Guitar II                                                          |
| F                         F                                  D#   |
|-------------------------------------------------------------------|
|-6-------------------------6----------------------------------4----|
|-5-------------------------5----------------------------------3----|
|-3-------------------------3----------------------------------1----|
|-------------------------------------------------------------------|
|-------------------------------------------------------------------|



Violen Solo Tab for Guitar (03:58):
|------------------------------10---------------------------------------|
|------------------10--13---------11--10--------------------------------|
|-----------------------------------------12----10----------------------|
|-10-------10--12------------------------------------13--12--13--12--10-|
|-----------------------------------------------------------------------|
|-----------------------------------------------------------------------|

|--------------------------------------------------------------------------|
|--------------------------------------------------------------------------|
|-10----10----12----------------------------------10----12-----------------|
|-----------------13---12--13---13--12---13--12-------------13--12--13--12-|
|--------------------------------------------------------------------------|
|--------------------------------------------------------------------------|

|-------------------------------------------------------------------------|
|-------------------------------------------------------------------------|
|----------------------------------------10-------------------------------|
|-12h13p12-10--------10---10h12-13----13-----13--12-13--12-10----------10-|
|-------------12-h13---------------------------------------------13-12----|
|-------------------------------------------------------------------------|

|-----------------------------------10-11--11-13-11--10-11--10-11-10-11-------|
|-----------10h11-13--13-13------13-------------------------------------13-11-|
|-10----10--------------------------------------------------------------------|
|-----------------------------------------------------------------------------|
|-----------------------------------------------------------------------------|
|-----------------------------------------------------------------------------|

|-11--10-11--10-11--10-11--10-11-10---------10h11----10-------------|
|-----------------------------------13-11---------13----11h13-10-10-|
|-------------------------------------------------------------------|
|-------------------------------------------------------------------|
|-------------------------------------------------------------------|
|-------------------------------------------------------------------|

|-10h11----10--------------10h11----10--------------10h11----10-------------|
|-------13----11h13-10-10--------13----11h13-10-10--------13----11h13-10-10-|
|---------------------------------------------------------------------------|
|---------------------------------------------------------------------------|
|---------------------------------------------------------------------------|
|---------------------------------------------------------------------------|

|-13---11-10-11p10----10-------------------------------------------|
|------------------13----13-11-13p11p10-11p10----10----------------|
|---------------------------------------------12----12-10-12p10----|
|---------------------------------------------------------------13-|
|------------------------------------------------------------------|
|------------------------------------------------------------------|

|-------------------------------------------------------------------|
|------------------------------------------10-11-13--------10-11-13-|
|---------------------------------------10--------------10----------|
|-13---12-13-12--13-12-13--12-13-12--10--------------10-------------|
|-------------------------------------------------------------------|
|-------------------------------------------------------------------|

|---------------------------------10b11-11-11-11-11-11-11--10-11----10-------|
|----------------------------------------------------------------13----11-13-|
|-------10-11-13--------10-11-13---------------------------------------------|
|----10--------------10------------------------------------------------------|
|-10--------------10---------------------------------------------------------|
|----------------------------------------------------------------------------|

|-13---13-13--11--10--11--10-11p10----11b13--13--13--11--10--11--10-11p10----|
|----------------------------------13-------------------------------------13-|
|----------------------------------------------------------------------------|
|----------------------------------------------------------------------------|
|----------------------------------------------------------------------------|
|----------------------------------------------------------------------------|

|-------------------------------------------------------------------------|
|-13--13--13--13-13-13-13-13-13-13-13-13-13-13-13-13-13-13-13-13-13-13-13-|
|-------------------------------------------------------------------------|
|-------------------------------------------------------------------------|
|-------------------------------------------------------------------------|
|-------------------------------------------------------------------------|


|-------------------------------------------------------------------------|
|-13-13-13-13-13-13-13-13-13-13-13-13-13-13-13-13-13-13-13-13-13-13-13--13|
|-------------------------------------------------------------------------|
|-------------------------------------------------------------------------|
|-------------------------------------------------------------------------|
|-------------------------------------------------------------------------|

Backup Guitar does this:
|-----------------------------------------------------------------|
|-----------------------------------------------------------------|
|-----------------------------------------------------------------|
|---3---3---3---3---3---3---3---3---3---3---3---3---3---3---3---3-|
|-3---3---3---3---3---3---3---3---3---3---3---3---3---3---3---3---|
|-----------------------------------------------------------------|

Outro(04:56):
|------------------------------------1--|
|------------------------------------1--|
|------------------------------------2--|
|--3-3-3-3-3-3-3-3-3-3-3-3-3-3-3-3-3-3--|
|-3-3-3-3-3-3-3-3--3-3-3-3-3-3-3-3-3-3--|
|------------------------------------1--|


____________________________________________________________________________________________________
____________________________________________________________________________________________________
____________________________________________________________________________________________________


Song: Bargain


Intro:
(It might be good to use a Capo on the 1st fret,
 but here's the tab without a capo
Acoustic:
  A#7sus4                     A#7
|-1--1-1-1--1-1-1--1-1-1--1---1--1-1-1--1-1-1--1-1-1--1-|
|-4--4-4-4--4-4-4--4-4-4--4---3--3-3-3--3-3-3--3-3-3--3-|
|-1--1-1-1--1-1-1--1-1-1--1---1--1-1-1--1-1-1--1-1-1--1-|
|-3--3-3-3--3-3-3--3-3-3--3---3--3-3-3--3-3-3--3-3-3--3-|
|-1--1-1-1--1-1-1--1-1-1--1---1--1-1-1--1-1-1--1-1-1--1-|
|-------------------------------------------------------|

|-1--1-1-1--1-1-1--1-1-1--1---1--1-1-1--1-1-1--1-1-1--1-|
|-4--4-4-4--4-4-4--4-4-4--4---3--3-3-3--3-3-3--3-3-3--3-|
|-1--1-1-1--1-1-1--1-1-1--1---1--1-1-1--1-1-1--1-1-1--1-|
|-3--3-3-3--3-3-3--3-3-3--3---3--3-3-3--3-3-3--3-3-3--3-|
|-1--1-1-1--1-1-1--1-1-1--1---1--1-1-1--1-1-1--1-1-1--1-|
|-------------------------------------------------------|

During strumming, the sythesizer does this:
|-----------------------------------------------------|
|--------------------------------------------------11-|
|-5--5/12---10--8---10---7-----8--5--5/12---10--8-----|
|--------------------------------------------------8--|
|-3--3/10---8---6---8----5-----6--3--3/10---8---6-----|
|-----------------------------------------------------|

Electric during singing (The notes are synchronized with the song lyrics):
 00:15
 I'd gladly lose me to find you
|-----------------------------------|
|-----------------------------------|
|----3------------------------------|
|----3--------------------------3-1-|
|----1--------------------------1-1-|
|-----------------------------------|

 I'd gladly give up all I have
|----------------------------------|
|----------------------------------|
|----3-----------------------------|
|----3-------------------------3-1-|
|----1-------------------------1-1-|
|----------------------------------|

 To find you I'd suffer anything and be glad
|-----------------------------------------|
|-----------------------------------------|
|---3----------------------6--6---------8-|
|---3----------------------6--6---------8-|
|---1----------------------4--4---------6-|
|-----------------------------------------|

 I'd pay any price just to get you
|--------------------------------------|
|--------------------------------------|
|----3---------------------------------|
|----3-----------------------------3-1-|
|----1-----------------------------1-1-|
|--------------------------------------|

 I'd work all my life and I will
|------------------------------------|
|------------------------------------|
|----3-------------------------------|
|----3---------------------------3-1-|
|----1---------------------------1-1-|
|------------------------------------|

 To win you I'd stand naked, stoned and stabbed
|---------------------------------------------------------------|
|---------------------------------------------4----6--7---6---4-|
|---3------------------------6--6-------3-----3----5--6---5---3-|
|---3------------------------6--6-------1---1----3----4---3---1-|
|---1------------------------4--4-------------------------------|
|---------------------------------------------------------------|

I'd call that a bargain, the best I ever had
|----------------------------------------------------------------|
|----------------------------------------------------------------|
|---------------6------------8-----------------------------------|
|---------------4------------6-----------8-------------------888-|
|----------------------------------------6-------------------666-|
|----------------------------------------------------------------|

The best I ever had
|-------------------------------------------------------|
|-----------------------------------2-------------------|
|-------------------------------1-3---3-2---------------|
|----------------1-3--1-3--1-3-------------1-3--1-3---1-|
|----------------1-1--1-1--1-1-------------1-1--1-1---1-|
|-------------------------------------------------------|

Here are how the next chords are done in the song (I don't know
if the names are correct):
 D#   D    G#   Fm   F
 x    x    4    1    1
 4    3    4    1    1
 3    2    5    1    2
 1    0    6    3    3
 x    x    6    3    3
 x    x    4    1    1

D#               D
  I sit looking 'round
             D#
I look at my face in the mirror
                 G#              Fm
I know I'm worth nothing without you
   D#                              D
In life one and one don't make two
                 D
One and one make one
        F                D#
And I'm looking for that free ride to me
                F
I'm looking for you 

Electric:
|-1-----------1-----------1-----------1---------|
|---4-----------4-----------3-----------3-------|
|-----1---1-------1---1-------1---1-------1---1-|
|-------3-----------3-----------3-----------3---|
|-----------------------------------------------|
|-----------------------------------------------|

|-1-----------1-----------1-----------1---------|
|---4-----------4-----------3-----------3-------|
|-----1---1-------1---1-------1---1-------1---1-|
|-------3-----------3-----------3-----------3---|
|-----------------------------------------------|
|-----------------------------------------------|

|-1-----------3-----------1-----------1---------|
|---4-----------4-----------3-----------3-------|
|-----1---1-------1---1-------1---1-------1---1-|
|-------3-----------3-----------3-----------3---|
|-----------------------------------------------|
|-----------------------------------------------|

|-1-----------1-----------1-----------1---------|
|---4-----------4-----------3-----------3-------|
|-----1---1-------1---1-------1---1-------1---1-|
|-------3-----------3-----------3-----------3---|
|-----------------------------------------------|
|-----------------------------------------------|

|-1-----------3-----------1--|
|---4-----------4---------3--|
|-----1---1-------1---1---1--|
|-------3-----------3-----3--|
|----------------------------|
|----------------------------|

Sythesizer:
|-----------------------------------------------------|
|--------------------------------------------------11-|
|-5--5/12---10--8---10---7-----8--5--5/12---10--8-----|
|--------------------------------------------------8--|
|-3--3/10---8---6---8----5-----6--3--3/10---8---6-----|
|-----------------------------------------------------|


 (Notes correspond to lyrics)
I'd gladly lose me to find you
|-----------------------------------|
|-----------------------------------|
|----3------------------------------|
|----3--------------------------3-1-|
|----1--------------------------1-1-|
|-----------------------------------|

 I'd gladly give up all I got
|---------------------------------|
|---------------------------------|
|----3----------------------------|
|----3------------------------3-1-|
|----1------------------------1-1-|
|---------------------------------|

 To find, I'm gonna run and never   stop
|-------------------------------------|
|-------------------------------------|
|---3-----------------------6--6----8-|
|---3-----------------------6--6----8-|
|---1-----------------------4--4----6-|
|-------------------------------------|

 I'd pay any price just to get you
|--------------------------------------|
|--------------------------------------|
|----3---------------------------------|
|----3-----------------------------3-1-|
|----1-----------------------------1-1-|
|--------------------------------------|

 Surrender my good life for bad
|-----------------------------------|
|-----------------------------------|
|----3------------------------------|
|----3--------------------------3-1-|
|----1--------------------------1-1-|
|-----------------------------------|

To find you, I'm gonna drown an unsung man
|----------------------------------------|
|----------------------------------------|
|---3---------------------------6--6---8-|
|---3---------------------------6--6---8-|
|---1---------------------------4--4---6-|
|----------------------------------------|

I'd call that a bargain, the best I ever had
|----------------------------------------------------------------|
|----------------------------------------------------------------|
|---------------6------------8-----------------------------------|
|---------------4------------6-----------8-------------------888-|
|----------------------------------------6-------------------666-|
|----------------------------------------------------------------|

|----------------------|
|----------------------|
|----------------------|
|------------------888-|
|------------------666-|
|----------------------|

The best I ever had
|-------------------------------------------------------|
|-----------------------------------2-------------------|
|-------------------------------1-3---3-2---------------|
|----------------1-3--1-3--1-3-------------1-3--1-3---1-|
|----------------1-1--1-1--1-1-------------1-1--1-1---1-|
|-------------------------------------------------------|

Acoustic:
  A#7sus4                     A#7
|-1--1-1-1--1-1-1--1-1-1--1---1--1-1-1--1-1-1--1-1-1--1-|
|-4--4-4-4--4-4-4--4-4-4--4---3--3-3-3--3-3-3--3-3-3--3-|
|-1--1-1-1--1-1-1--1-1-1--1---1--1-1-1--1-1-1--1-1-1--1-|
|-3--3-3-3--3-3-3--3-3-3--3---3--3-3-3--3-3-3--3-3-3--3-|
|-1--1-1-1--1-1-1--1-1-1--1---1--1-1-1--1-1-1--1-1-1--1-|
|-------------------------------------------------------|

|-1--1-1-1--1-1-1--1-1-1--1---1--1-1-1--1-1-1--1-1-1--1-|
|-4--4-4-4--4-4-4--4-4-4--4---3--3-3-3--3-3-3--3-3-3--3-|
|-1--1-1-1--1-1-1--1-1-1--1---1--1-1-1--1-1-1--1-1-1--1-|
|-3--3-3-3--3-3-3--3-3-3--3---3--3-3-3--3-3-3--3-3-3--3-|
|-1--1-1-1--1-1-1--1-1-1--1---1--1-1-1--1-1-1--1-1-1--1-|
|-------------------------------------------------------|

Strum faster when Keith Moon comes in:
  A#7sus4                     A#7
|-1--1-1-1--1-1-1--1-1-1--1---1--1-1-1--1-1-1--1-1-1--1-|
|-4--4-4-4--4-4-4--4-4-4--4---3--3-3-3--3-3-3--3-3-3--3-|
|-1--1-1-1--1-1-1--1-1-1--1---1--1-1-1--1-1-1--1-1-1--1-|
|-3--3-3-3--3-3-3--3-3-3--3---3--3-3-3--3-3-3--3-3-3--3-|
|-1--1-1-1--1-1-1--1-1-1--1---1--1-1-1--1-1-1--1-1-1--1-|
|-------------------------------------------------------|

|-1--1-1-1--1-1-1--1-1-1--1---1--1-1-1--1-1-1--1-1-1--1-|
|-4--4-4-4--4-4-4--4-4-4--4---3--3-3-3--3-3-3--3-3-3--3-|
|-1--1-1-1--1-1-1--1-1-1--1---1--1-1-1--1-1-1--1-1-1--1-|
|-3--3-3-3--3-3-3--3-3-3--3---3--3-3-3--3-3-3--3-3-3--3-|
|-1--1-1-1--1-1-1--1-1-1--1---1--1-1-1--1-1-1--1-1-1--1-|
|-------------------------------------------------------|

|-1--1-1-1--1-1-1--1-1-1--1---1--1-1-1--1-1-1--1-1-1--1-|
|-4--4-4-4--4-4-4--4-4-4--4---3--3-3-3--3-3-3--3-3-3--3-|
|-1--1-1-1--1-1-1--1-1-1--1---1--1-1-1--1-1-1--1-1-1--1-|
|-3--3-3-3--3-3-3--3-3-3--3---3--3-3-3--3-3-3--3-3-3--3-|
|-1--1-1-1--1-1-1--1-1-1--1---1--1-1-1--1-1-1--1-1-1--1-|
|-------------------------------------------------------|

|-1--1-1-1--1-1-1--1-1-1--1---1--1-1-1--1-1-1--1-1-1--1-|
|-4--4-4-4--4-4-4--4-4-4--4---3--3-3-3--3-3-3--3-3-3--3-|
|-1--1-1-1--1-1-1--1-1-1--1---1--1-1-1--1-1-1--1-1-1--1-|
|-3--3-3-3--3-3-3--3-3-3--3---3--3-3-3--3-3-3--3-3-3--3-|
|-1--1-1-1--1-1-1--1-1-1--1---1--1-1-1--1-1-1--1-1-1--1-|
|-------------------------------------------------------|

Electric:
|-----------6--------------6--------------6--------------6---|
|-----------6--------------6--------------6--------------6---|
|------------------------------------------------------------|
|------------------------------------------------------------|
|-6-8--6-8-------6-8--6-8-------6-8--6-8-------6-8--6-8------|
|-6-6--6-6-------6-6--6-6-------6-6--6-6-------6-6--6-6------|

|-----------6----6-6--6-6--6--------------6------------|
|-----------6----6-6--6-6--6--------------6------------|
|------------------------------------------------------|
|----------------------------------------------8-------|
|-6-8--6-8----------------------6-8--6-8-------8-------|
|-6-6--6-6----------------------6-6--6-6-------6-------|

Acoustic:
|-1--1-1-1--1-1-1--1-1-1--1---1--1-1-1--1-1-1--1-1-1--1-|
|-4--4-4-4--4-4-4--4-4-4--4---3--3-3-3--3-3-3--3-3-3--3-|
|-1--1-1-1--1-1-1--1-1-1--1---1--1-1-1--1-1-1--1-1-1--1-|
|-3--3-3-3--3-3-3--3-3-3--3---3--3-3-3--3-3-3--3-3-3--3-|
|-1--1-1-1--1-1-1--1-1-1--1---1--1-1-1--1-1-1--1-1-1--1-|
|-------------------------------------------------------|

|-1--1-1-1--1-1-1--1-1-1--1---1--1-1-1--1-1-1--1-1-1--1-|
|-4--4-4-4--4-4-4--4-4-4--4---3--3-3-3--3-3-3--3-3-3--3-|
|-1--1-1-1--1-1-1--1-1-1--1---1--1-1-1--1-1-1--1-1-1--1-|
|-3--3-3-3--3-3-3--3-3-3--3---3--3-3-3--3-3-3--3-3-3--3-|
|-1--1-1-1--1-1-1--1-1-1--1---1--1-1-1--1-1-1--1-1-1--1-|
|-------------------------------------------------------|


|-1--1-1-1--1-1-1--1-1-1--1---1---|
|-4--4-4-4--4-4-4--4-4-4--4---3---|
|-1--1-1-1--1-1-1--1-1-1--1---1---|
|-3--3-3-3--3-3-3--3-3-3--3---3---|
|-1--1-1-1--1-1-1--1-1-1--1---1---|
|---------------------------------|


____________________________________________________________________________________________________
____________________________________________________________________________________________________
____________________________________________________________________________________________________


Song: Love Ain't For The Keeping


Intro (Notes aren't perfectly synchronized):

 Guitar I
|---------------------------------3--3--3--3--3-------------------------------|
|-----------2----2-2-2---2-2-2----3--3--3--3--3----2----2-2-2---2-2-2---2-2-2-|
|-----------2----2-2-2---2-2-2----0--0--0--0--0----2----2-2-2---2-2-2---2-2-2-|
|-----------2----2-2-2---2-2-2----0--0--0--0--0----2----2-2-2---2-2-2---2-2-2-|
|------0----0----0-0-0---0-0-0----2--2--2--2--2----0----0-0-0---0-0-0---0-0-0-|
|-3--3------------------------------------------------------------------------|
|Guitar II
|-----------------------------------------------------------------------------|
|------------------------------/2---------------------------------------------|
|---------------------------------4-2---2-2-----222---------------------------|
|-------------------------------------4-------4-------------------------------|
|------0--------------------------------------------4-------------------------|
|-3--3------------------------------------------------------------------------|

Chords:

G            D
Layin' on my back

                  A
In the newly mown grass

|-------------------------------------|
|-------------------------------------|
|-----------2-2-----2-2-----2-2-----2-|
|-------2-4-------4-------4-------4---|
|-0-2-4-------------------------------|
|-------------------------------------|


G              D
Rain is coming down

                           A
But I know the clouds will pass

|------------|
|------------|
|------------|
|---2-0-0----|
|-4----------|
|------------|


D
 You bring me tears

|-14\--------|
|-15\--------|
|------7-7---|
|------------|
|------------|
|------------|

D                A
Say, the babes a-sleeping

|----9---7---5--0-|
|---------------1-|
|-/9---7---6----0-|
|---------------2-|
|---------------3-|
|-----------------|

C             G
  Lay down beside me

G              A
Love ain't for keeping

|---------------------------------------------3-3--2-2---|
|------------------------------------------/5-5-5--3-3---|
|--------------------------2----2-----2----------------2-|
|------------------------2---4------4--------------------|
|-4r2--0-----0-0-----0h4---------------------------------|
|---------2----------------------------------------------|


G                  D
Black ash from the foundry

             A
Hangs like a hood

G                  D
 But the air is perfumed

                   A
By the burning firewood


D
 The seeds are bursting

|-15-14-------|
|-------15----|
|----------14-|
|-------------|
|-------------|
|-------------|

              A
The spring is seeping

|--------------------------0--|
|----15-15----14\12--------1--|
|-12-------------------14--0--|
|-------------------14-----2--|
|--------------------------3--|
|-----------------------------|


C
 Lay down my darlin'

G              A
Love ain't for keeping

|-/9----7---5--------------------9----7---5-----------------0--|
|-/10---7---7--------------------10---7---5-----------------1--|
|-----0-----7-----------------------------------------------0--|
|--------------5-x-7-7--7---7----------------5---7-5--------2--|
|-------------------------0---0----------------------7-5-3--3--|
|--------------------------------------------------------------|


C             G
  Lay down beside me

G              A
Love ain't for keeping


Guitar Solo:
|-/9----7---5--------------------9----7---5-----------------|
|-/10---7---7--------------------10---7---5-----------------|
|-----0-----7-----------------------------------------------|
|--------------5-x-7-7--7---7----------------5---5-5-5-5-5--|
|-------------------------0---0-----------------------------|
|-----------------------------------------------------------|

|--------12---------12---------12-------------------------------------------9b10---------------|
|-12b14------12b14------12b14------14r12--10------10-------10-10-----10-----------12-10----10--|
|---------------------------------------------11-------11---------11----11--------------11-----|
|----------------------------------------------------------------------------------------------|
|----------------------------------------------------------------------------------------------|
|----------------------------------------------------------------------------------------------|

|-----------------12---------12--------12---------------------------------------------------|
|----10----12b14------12b14------12b14----14r12-10-----10----7r5-3-----0--------------------|
|-11------------------------------------------------11---------------2-----2----------------|
|------------------------------------------------------------------4-----4-------0-2----0---|
|------------------------------------------------------------------------------4-----0------|
|-------------------------------------------------------------------------------------------|

|-2------------2------2--3--3--3-3-2---9----7---5-------|
|---3-------/3-----/3----5--5--5-5-----10---7---5-------|
|-----2--------------------------------9----7---6-------|
|-------0-----------------------------------------7-5\--|
|-----------------------------------------0---0---------|
|-------------------------------------------------------|


C             G
  Lay down beside me

G              A
Love ain't for keeping

|-5-x-5---------------------------------------------------------0--|
|-5-x-5---------------x----------------------2------------------1--|
|---------------------x------------------------2---2-2---2-2----0--|
|----------------2----x-------------------2------------4-----4--2--|
|-------0---2b4-----4---4-4-0---0---0h2h4-----------------------3--|
|-----------------------------3------------------------------------|

C
 Lay down my darlin'

G              A
Love ain't for keeping

Outro:
|------------------------------------|
|------------------------------2-2---|
|-6r4p2-----------2------------2-2---|
|-------4-----2-----2-----2----2-2---|
|---------0-4---0-----0-4---0--0-0---|
|------------------------------------|


____________________________________________________________________________________________________
____________________________________________________________________________________________________
____________________________________________________________________________________________________


Song: My Wife


Intro:
  B        A           B        A
|-----------------------------------|
|--------------2--------------------|
|-4-----4--2-2-2-------4-----4--2-2-|
|-4-----4--2-2---------4-----4--2-2-|
|-2-----2--0-0-----0---2-----2--0-0-|
|-----------------------------------|


Chords:

B            G
My life's in jeopardy

G                                  E
Murdered in cold blood is what I'm gonna be

  D
I ain't been home since friday night

    E                     B
and now my wife is coming after me


C#
Give me police protection

      G
Gonna buy a gun

                    E
So I can look after number one


     D
Give me a body guard

             G                    F#
A black belt Judo expert with a machine gun


|-------------------------------------------|
|----------------------------------------2--|
|----4-----4-4--4---2--------4-----4--2--2--|
|----4-----4-4--4---2--------4-----4--2-----|
|-2--------2-2--2---0--------2-----2--0-----|
|-------------------------------------------|


B                       G
Gonna buy a tank and an aeroplane

         G
When she catches up with me

            E
Won't be no time to explain

    D
She thinks I'm with another woman

    E                         B
And that's enough to send her half-insane


C#
Gonna buy a fast car

    G
Put on my lead boots

       E
Take a long long drive


   D                          G
It may end up spending all my money

               F#
But I'll still be alive


E                    F#
All I did was have a few too much to drink

      B                   C#
And I picked the wrong precint


    E
Got picked up by the law

    F#                      B
And now I ain't got time to think


Horns Tab for Guitar:

 Guitar I
|--------------------------------------|
|--------------------------------------|
|-4------------------4-----------------|
|-4------4-----------4------4----------|
|-2------4-----------2------4----------|
|--------2------------------2----------|
|Guitar II
|--------------------------------------|
|------------7--5---------------7--5---|
|--------------------------------------|
|--------------------------------------|
|--------------------------------------|
|--------------------------------------|

 Guitar I
|--------------------------------------|
|--------------------------------------|
|-4------------------4-----------------|
|-4------4-----------4------4----------|
|-2------4-----------2------4----------|
|--------2------------------2----------|
|Guitar II
|--------------------------------------|
|------------7--5---------------7--5---|
|--------------------------------------|
|--------------------------------------|
|--------------------------------------|
|--------------------------------------|

 Guitar I
|--------------------------------------|
|--------------------------------------|
|-4------------------4-----------------|
|-4------4-----------4------4----------|
|-2------4-----------2------4----------|
|--------2------------------2----------|
|Guitar II
|--------------------------------------|
|------------7--5---------------7--5---|
|--------------------------------------|
|--------------------------------------|
|--------------------------------------|
|--------------------------------------|

 Guitar I
|------------------|
|------------------|
|-4----------------|
|-4------4---------|
|-2------4---------|
|--------2---------|
|Guitar II
|------------------|
|------------7--5--|
|------------------|
|------------------|
|------------------|
|------------------|


B                       G
Gonna buy a tank and an aeroplane

         G
When she catches up with me

            E
Won't be no time to explain

    D
She thinks I'm with another woman

    E                         B
And that's enough to send her half-insane


C#
Gonna buy a fast car

    G
Put on my lead boots

       E
Take a long long drive


   D                          G
It may end up spending all my money

               F#
But I'll still be alive


        E     F#
And I'm Oh so tired of running

      B               C#
Gonna lay down on the floor

        E
I gotta rest some time so

F#                    B
I can get to run some more, Yeah!


Horns Tab for Guitar:
 Guitar I
|--------------------------------------|
|--------------------------------------|
|-4------------------4-----------------|
|-4------4-----------4------4----------|
|-2------4-----------2------4----------|
|--------2------------------2----------|
|Guitar II
|--------------------------------------|
|------------7--5---------------7--5---|
|--------------------------------------|
|--------------------------------------|
|--------------------------------------|
|--------------------------------------|

(From "She's coming!")
 Guitar I
|--------------------------------------|
|--------------------------------------|
|-4------------------4-----------------|
|-4------4-----------4------4----------|
|-2------4-----------2------4----------|
|--------2------------------2----------|
|Guitar II
|--------------------------------------|
|------------7--5---------------7--5---|
|--------------------------------------|
|--------------------------------------|
|--------------------------------------|
|--------------------------------------|

(From "She's coming!")
 Guitar I
|--------------------------------------|
|--------------------------------------|
|-4------------------4-----------------|
|-4------4-----------4------4----------|
|-2------4-----------2------4----------|
|--------2------------------2----------|
|Guitar II
|--------------------------------------|
|------------7--5---------------7--5---|
|--------------------------------------|
|--------------------------------------|
|--------------------------------------|
|--------------------------------------|

(From "She's coming!")
 Guitar I
|--------------------------------------|
|--------------------------------------|
|-4------------------4-----------------|
|-4------4-----------4------4----------|
|-2------4-----------2------4----------|
|--------2------------------2----------|
|Guitar II
|--------------------------------------|
|------------7--5---------------7--5---|
|--------------------------------------|
|--------------------------------------|
|--------------------------------------|
|--------------------------------------|
Fade Away


____________________________________________________________________________________________________
____________________________________________________________________________________________________
____________________________________________________________________________________________________


Song: The Song Is Over


Intro (When the Guitar comes in) (00:04):
|-----------------------------------------------------------------------------------|
|-11\10-------------------------------------------------11--10----------------------|
|--------10h12p10-----------------------------------------------10------------------|
|-----------------12--10----8-----------3---3-----------------------10------10--10--|
|-----------------------------------------------------------------------------------|
|-----------------------------------------------------------------------------------|

Intro Piano Tab for Guitar:
|-10------8----------6-----8-------------|-10------8----------6-----8-----------|
|-10------8----------6---6-8---8h10p8----|-10------8----------6---6-8---8h10----|
|-----12-----7--10-----7--------------10-|-----12-----7--10-----7------------10-|
|----------------------------------------|--------------------------------------|
|----------------------------------------|--------------------------------------|
|-10------8----------6-----8-------------|-10------8----------6-----8-----------|

|-10------8----------6-----8-------------|-10------8----------6-----8-----------|
|-10------8----------6---6-8---8h10p8----|-10------8----------6---6-8---8h10----|
|-----12-----7--10-----7--------------10-|-----12-----7--10-----7------------10-|
|----------------------------------------|--------------------------------------|
|----------------------------------------|--------------------------------------|
|-10------8----------6-----8-------------|-10------8----------6-----8-----------|


Piano Tab For Guitar:

(From "The song is over, it's all behind me")
|-10------8----------6-----8-----------|-10------8----------6-----8-----------|
|-10------8----------6---6-8---8h10----|-10------8----------6---6-8---8h10----|
|-----12-----7--10-----7------------10-|-----12-----7--10-----7------------10-|
|--------------------------------------|--------------------------------------|
|--------------------------------------|--------------------------------------|
|-10------8----------6-----8-----------|-10------8----------6-----8-----------|

(From "I should have known it, she tried to find me")
|-10------8----------6-----8-----------|-10------8----------6-----8-----------|
|-10------8----------6---6-8---8h10----|-10------8----------6---6-8---8h10----|
|-----12-----7--10-----7------------10-|-----12-----7--10-----7------------10-|
|--------------------------------------|--------------------------------------|
|--------------------------------------|--------------------------------------|
|-10------8----------6-----8-----------|-10------8----------6-----8-----------|


Where guitar comes in:
|----------------------------------|
|----------------------------------|
|----------------------------------|
|-3-----3/5-3--------------------3-|
|---------------3h5----3-----------|
|------------------------6-3--\1-1-|


(From "Our love is over, they're all ahead now")
|-10------8----------6-----8-----------|-10------8----------6-----8-----------|
|-10------8----------6---6-8---8h10----|-10------8----------6---6-8---8h10----|
|-----12-----7--10-----7------------10-|-----12-----7--10-----7------------10-|
|--------------------------------------|--------------------------------------|
|--------------------------------------|--------------------------------------|
|-10------8----------6-----8-----------|-10------8----------6-----8-----------|

(From "I've got to learn it, I'm gonna sing out")
|-10------8----------6-----8-----------|-10------8----------6-----8-----------|
|-10------8----------6---6-8---8h10----|-10------8----------6---6-8---8h10----|
|-----12-----7--10-----7------------10-|-----12-----7--10-----7------------10-|
|--------------------------------------|--------------------------------------|
|--------------------------------------|--------------------------------------|
|-10------8----------6-----8-----------|-10------8----------6-----8-----------|


A#
  I'll sing my song to the wide open spaces

A#
  I'll sing my heart out to the infinite sea

C
  I'll sing my visions to the sky mountains

C
  I'll sing my songs to the free


C#
  I'll sing my songs to the wide open spaces

C#
  I'll sing my heart out to the infinite sea


D#
  I'll sing my visions to the sky mountains

C
  I'll sing my songs to the free


Guitar Solo:
                                              "To the free"
|-------------------------------------------------------------------|
|-11p10-------------------------------------------------------------|
|----------10-x-10---------7r5-3-5-3-----------------------8/10-10--|
|-------10-------------------------------------------------8/10-10--|
|-------------------------------------3-3-1h3-----------------------|
|------------------6h8----------------------------------------------|

|------------------------------------------------------15--------------------------|
|-15--15--13h15--13h15--13h15--13h15--13h15--13h15--15-----13h15-12----------------|
|--------------------------------------------------------------------12----12--12\-|
|-----------------------------------------------------------------------14---------|
|----------------------------------------------------------------------------------|
|----------------------------------------------------------------------------------|

|-----------------------------------5----------------------------------------8-8----|
|----------------------------------------------------------------------------8-8----|
|----3--3--5p3-----------3-----4b6------6r4p2--------------------------------7-7----|
|-5------------5-5---3h5----------------------4-2-----------------0----5h7----------|
|-------------------------------------------------4-2--0----0h2h4-------------------|
|-----------------------------------------------------------------------------------|


B                  A
 When I walked you to the door

B                        A
 Thought it was me I was looking for

A                         G
 She was the first song I ever sang

       Em                       C
But it stopped too soon as it began


Piano Tab for Guitar:
|-10------8----------6-----8-------------|-10------8----------6-----8-----------|
|-10------8----------6---6-8---8h10p8----|-10------8----------6---6-8---8h10----|
|-----12-----7--10-----7--------------10-|-----12-----7--10-----7------------10-|
|----------------------------------------|--------------------------------------|
|----------------------------------------|--------------------------------------|
|-10------8----------6-----8-------------|-10------8----------6-----8-----------|

(From "Our love is over, It's all behind me")
|-10------8----------6-----8-----------|-10------8----------6-----8-----------|
|-10------8----------6---6-8---8h10----|-10------8----------6---6-8---8h10----|
|-----12-----7--10-----7------------10-|-----12-----7--10-----7------------10-|
|--------------------------------------|--------------------------------------|
|--------------------------------------|--------------------------------------|
|-10------8----------6-----8-----------|-10------8----------6-----8-----------|

(From "They're all ahead now, Can't hope to find me")
|-10------8----------6-----8-----------|-10------8----------6-----8-----------|
|-10------8----------6---6-8---8h10----|-10------8----------6---6-8---8h10----|
|-----12-----7--10-----7------------10-|-----12-----7--10-----7------------10-|
|--------------------------------------|--------------------------------------|
|--------------------------------------|--------------------------------------|
|-10------8----------6-----8-----------|-10------8----------6-----8-----------|

A#
  I'll sing my song to the wide open spaces

A#
  I'll sing my heart out to the infinite sea

C
  I'll sing my visions to the sky mountains

C
  I'll sing my songs to the free


C#
  I'll sing my songs to the wide open spaces

C#
  I'll sing my heart out to the infinite sea


D#
  I'll sing my visions to the sky mountains

C                                  G
  I'll sing my songs to the free

|----------------8--------------------------------|
|-----------------8-------------------------------|
|------2-----------7p5-----7---5---3----------3---|
|-5----2-------------------7---5---3----------3---|
|-5----0--------------------------------------1---|
|-3-----------------------------------------------|

Piano Tab for Guitar:
|-10------8----------6-----8-------------|-10------8----------6-----8-----------|
|-10------8----------6---6-8---8h10p8----|-10------8----------6---6-8---8h10----|
|-----12-----7--10-----7--------------10-|-----12-----7--10-----7------------10-|
|----------------------------------------|--------------------------------------|
|----------------------------------------|--------------------------------------|
|-10------8----------6-----8-------------|-10------8----------6-----8-----------|

(From "The song is over...")
|-10------8----------6-----8-----------|-10------8----------6-----8-----------|
|-10------8----------6---6-8---8h10----|-10------8----------6---6-8---8h10----|
|-----12-----7--10-----7------------10-|-----12-----7--10-----7------------10-|
|--------------------------------------|--------------------------------------|
|--------------------------------------|--------------------------------------|
|-10------8----------6-----8-----------|-10------8----------6-----8-----------|

(From "I must remember...")
|-10------8----------6-----8-----------|
|-10------8----------6---6-8---8h10----|
|-----12-----7--10-----7------------10-|
|--------------------------------------|
|--------------------------------------|
|-10------8----------6-----8-----------|


Guitar:
|-----------------------------------------|
|-----------------------------------------|
|--------------------5---------5-----5----|
|-/3---------------------5--------5-----5-|
|----------1h3----------------------------|
|-----------------------------------------|


C
 The song is over

C
 The song is over

C
 searchin' for notes, pure and easy

C
 playin' so free like a breath rippling by


Outro:
|-------------------------------------------------------------------------------------------|
|-------------------------------------------------------------------------------------------|
|---5-----5------5-----5------5-----5------5-----5------5-----5------5-----5------5-----5---|
|-------------------------------------------------------------------------------------------|
|-3-----3------3-----3------3-----3------3-----3------3-----3------3-----3------3-----3-----|
|-------------------------------------------------------------------------------------------|

|---------------------------------------------------------|
|-----------------------------------------------------5---|
|---5-----5------5-----5------5-----5------5-----5----5---|
|-----------------------------------------------------5---|
|-3-----3------3-----3------3-----3------3-----3------3---|
|---------------------------------------------------------|


____________________________________________________________________________________________________
____________________________________________________________________________________________________
____________________________________________________________________________________________________


Song: Getting In Tune


Intro:

Piano Tab For Guitar:
|-1-----1-----1-----1-----1-----1-----1-----1------|
|-1-----1-----1-----1-----3-----3-----3-----3------|
|-2-----2-----2-----2-----3-----3-----3-----3-0----|
|----3-----3-----3-----3-----3-----3-----3------3--|
|--------------------------------------------------|
|--------------------------------------------------|

(From "I'm singing this note...")
|-1-----1-----1-----1-----1-----1-----1-----1------|
|-1-----1-----1-----1-----3-----3-----3-----3------|
|-2-----2-----2-----2-----3-----3-----3-----3-0----|
|----3-----3-----3-----3-----3-----3-----3------3--|
|--------------------------------------------------|
|--------------------------------------------------|

(From "I can't pretend there's any meaning...")
|-1-----1-----1-----1-----1-----1-----1-----1------|
|-1-----1-----1-----1-----3-----3-----3-----3------|
|-2-----2-----2-----2-----3-----3-----3-----3-0----|
|----3-----3-----3-----3-----3-----3-----3------3--|
|--------------------------------------------------|
|--------------------------------------------------|

(But I met you..")
|-1-----1-----1-----1-----1-----1-----1-----1------|
|-1-----1-----1-----1-----3-----3-----3-----3------|
|-2-----2-----2-----2-----3-----3-----3-----3-0----|
|----3-----3-----3-----3-----3-----3-----3------3--|
|--------------------------------------------------|
|--------------------------------------------------|

(But I met you..")
|-1-----1-----1-----1-----1-----1-----1-----1------|
|-1-----1-----1-----1-----3-----3-----3-----3------|
|-2-----2-----2-----2-----3-----3-----3-----3-0----|
|----3-----3-----3-----3-----3-----3-----3------3--|
|--------------------------------------------------|
|--------------------------------------------------|


(Guitar comes in)

|---------------------------------------------------------------------------|
|---------------------------------------------------------------------------|
|----------------------------------------3---5p3---3------------------------|
|-3---3-----3--3-----5---5-----6--6----6---6-----6---6-3--3-----------------|
|---------3------------------3---------------------------------1-3-------3--|
|------------------------------------------------------------------1-----1--|


(From "I get a little tired of having to say...")
Piano:
|-1-----1-----1-----1-----1-----1-----1-----1------|
|-1-----1-----1-----1-----3-----3-----3-----3------|
|-2-----2-----2-----2-----3-----3-----3-----3-0----|
|----3-----3-----3-----3-----3-----3-----3------3--|
|--------------------------------------------------|
|--------------------------------------------------|

Guitar:
|-------------------------------|
|-11p10-----------------------6-|
|-------10----------------------|
|----------10-----8h10-7h8-7----|
|-------------------------------|
|-------------------------------|

(From "But when I look in your eyes...")
Piano:
|-1-----1-----1-----1-----1-----1-----1-----1------|
|-1-----1-----1-----1-----3-----3-----3-----3------|
|-2-----2-----2-----2-----3-----3-----3-----3-0----|
|----3-----3-----3-----3-----3-----3-----3------3--|
|--------------------------------------------------|
|--------------------------------------------------|

Guitar:
|----------|
|-------6--|
|-----5----|
|-7h8------|
|----------|
|----------|


               F            A#
I'm getting in tune, riding tune

       F                   C
I'm in tune, and I'm gonna choose


          F              A#
Riding on you (riding on you)

          G#             A#   F
Riding on you (riding on you)


G
  I got it all here in my head

D#
  There's nothing more needs to be said

A#
  I'm just banging on my own piano

C
  I'm getting in tune with the straight and narrow


Guitar Solo:
|----------------------------------------------8----------------------------------------------|
|-8--------11b13--13----11-----------------------11-8--------------/13-13-11-13---11-13-11-13-|
|-----8h10-----------------8-10-----------------------10-8-10---------------------------------|
|-------------------------------10-8-10-----------------------10-8----------------------------|
|---------------------------------------------------------------------------------------------|
|---------------------------------------------------------------------------------------------|

|--------------------------------------------|
|-16b18--13--------13---13-------------------|
|---------------------------------5----p3-5--|
|--------------------------------------------|
|------------\-------------------------------|
|--------------------------------------------|

(From "I'm singing this note...")
|-3-----3-----3-----3-----3-----3-----3-----3------|
|-3-----3-----3-----3-----5-----5-----5-----5------|
|-4-----4-----4-----4-----5-----5-----5-----5------|
|----5-----5-----5-----5-----5-----5-----5-----5---|
|--------------------------------------------------|
|--------------------------------------------------|

(From "There's a symphoney...")
|-3-----3-----3-----3-----3-----3-----3-----3------|
|-3-----3-----3-----3-----5-----5-----5-----5------|
|-4-----4-----4-----4-----5-----5-----5-----5------|
|----5-----5-----5-----5-----5-----5-----5-----5---|
|--------------------------------------------------|
|--------------------------------------------------|

(From "But I'm in tune...")
|-3-----3-----3-----3-----3-----3-----3-----3------|
|-3-----3-----3-----3-----5-----5-----5-----5------|
|-4-----4-----4-----4-----5-----5-----5-----5------|
|----5-----5-----5-----5-----5-----5-----5-----5---|
|--------------------------------------------------|
|--------------------------------------------------|


(Guitar comes in)

(From "I'm gonna tune...")
|---------|
|---------|
|-7\------|
|-7\------|
|-5\------|
|---------|


          G              C
Riding on you (riding on you)

          A#             C   G   C   G
Riding on you (riding on you)


            G                C
Hit me with you (Hit me with you)
            
            A#               C
Hit me with you (Hit me with you)

            G                    C   G
Hit me with you (Hit me with you)


|-----------|
|-8---8-8\--|
|-----------|
|-----------|
|-----------|
|-----------|


Am
  I've got it all hear in my head

F
  Nothing more needs to be said

C
  Just bangin' on my ol' piano

D
  I'm getting in tune with the straight and narrow

|--------------------------------------------------------------------------|
|------------------------------------------------3------3--3---3------3--3-|
|-----5h7--7---5h7--7--------5h7--7--5h7--7------2-------------2-----------|
|-0---------------------0---------------------0--0-------------0-----------|
|---------------------------------------------------0-3-----------0-3------|
|--------------------------------------------------------------------------|

D
  I'm getting in tune with the straight and narrow

|----------------------------8r7----------10-----7----8-7-5-----------------------8-8-8b10---|
|---------10r8p6---6-6-----------6------------10------------8-6b7-----------8b10-------------|
|-5---7----------7-----7-------------7-----------------------------7-5-7---------------------|
|--------------------------------------------------------------------------------------------|
|--------------------------------------------------------------------------------------------|
|--------------------------------------------------------------------------------------------|

|-14-14-10-------------------------------------------------------|
|----------13----------------------13-------13-------------------|
|-------------11-9-----------12b14----12b14------14r12--11-------|
|------------------10--12-----------------------------------12\--|
|----------------------------------------------------------------|
|----------------------------------------------------------------|


D
  I'm getting in tune with the straight and narrow

D
  I'm getting in tune with the straight and narrow

|--------------------------------------------------------------------------------------|
|-13--------13-----------13--------13--------13--------13--------13--------13----------|
|-----12b14-------12b14-----12b14-----12b14-----12b14-----12b14-----12b14-----10-10----|
|-----------------------------------------------------------------------------------12-|
|--------------------------------------------------------------------------------------|
|--------------------------------------------------------------------------------------|

|-------------------------------------------------------------------------------------------------|
|-------------------------------------------------------------------------------------------------|
|-10------------------12b14r12----12b14r12p10----10-10--------------------------------------------|
|----12-10---10-------------------------------12-------12------3------------------------3---------|
|---------------12------------------------------------------------5--3--0--5---5--5--5------5-3-5-|
|-------------------------------------------------------------------------------------------------|

|--------------------------------------------------------------------------|
|--------------------------------------------------------7-7---------------|
|------------------------------------------------------------7-7-5-5-----7-|
|-------------------------------3-----3------------3-----------------7-7---|
|-3h5--3h5--3h5--3h5--3h5--3h5----------5-3--5--3--------------------------|
|--------------------------------------------------------------------------|
                                                   (Fade Away)


____________________________________________________________________________________________________
____________________________________________________________________________________________________
____________________________________________________________________________________________________



Song: Goin' Mobile


Intro (Played on a 12-string acoustic):
|-----------------------------------------------------------------------------------------|
|--------------------------------------------------------10-10-9--9--7----9---10-10-9--7--|
|--------------------------------------------------------9--9--9--9--9----9---9--9--9--9--|
|--------------------------------------------------------9--9--9--9--9----9---9--9--9--9--|
|----7--7---------7---7--------7--7---------7---7-----------------------------------------|
|-7---------7--9---------7--9---------7--9---------7--9-----------------------------------|

|-----------------------------------------------------------------------------------------|
|--------------------------------------------------------10-10-9--9--7----9---10-10-9--7--|
|--------------------------------------------------------9--9--9--9--9----9---9--9--9--9--|
|--------------------------------------------------------9--9--9--9--9----9---9--9--9--9--|
|----7--7---------7---7--------7--7---------7---7-----------------------------------------|
|-7---------7--9---------7--9---------7--9---------7--9-----------------------------------|


(From "I'm going home, and when I wanna go home I'm going mobile")
|--------------------------------------------------------------------------------------|
|-----------------------------------------------------10-10-9--9--7----9---10-10-9--7--|
|-----------------------------------------------------9--9--9--9--9----9---9--9--9--9--|
|-----------------------------------------------------9--9--9--9--9----9---9--9--9--9--|
|-7--7---------7---7--------7--7---------7---7-----------------------------------------|
|--------7--9---------7--9---------7--9---------7--9-----------------------------------|

(From "Well I'm gonna find a home and we'll see how it goes going mobile")
|--------------------------------------------------------------------------------------|
|-----------------------------------------------------10-10-9--9--7----9---10-10-9--7--|
|-----------------------------------------------------9--9--9--9--9----9---9--9--9--9--|
|-----------------------------------------------------9--9--9--9--9----9---9--9--9--9--|
|-7--7---------7---7--------7--7---------7---7-----------------------------------------|
|--------7--9---------7--9---------7--9---------7--9-----------------------------------|

(From "Keep me moving")
|--------------------------------------------------------------------------------------------------|
|--------------------------------------------------------------------------------------------------|
|--------------------------------------------------------------------------------------------------|
|-2--------2----2----------2--------2----2----------2--------2----2----------2--------2----2-------|
|----2--4----------2--4-------2--4----------2--4-------2--4----------2--4-------2--4----------2--4-|
|--------------------------------------------------------------------------------------------------|


(From "I can pull up by the curb, I can make it on the road going mobile")
|--------------------------------------------------------------------------------------|
|-----------------------------------------------------10-10-9--9--7----9---10-10-9--7--|
|-----------------------------------------------------9--9--9--9--9----9---9--9--9--9--|
|-----------------------------------------------------9--9--9--9--9----9---9--9--9--9--|
|-7--7---------7---7--------7--7---------7---7-----------------------------------------|
|--------7--9---------7--9---------7--9---------7--9-----------------------------------|

(From "I can stop at any street inviting people that we meet goin' mobile")
|--------------------------------------------------------------------------------------|
|-----------------------------------------------------10-10-9--9--7----9---10-10-9--7--|
|-----------------------------------------------------9--9--9--9--9----9---9--9--9--9--|
|-----------------------------------------------------9--9--9--9--9----9---9--9--9--9--|
|-7--7---------7---7--------7--7---------7---7-----------------------------------------|
|--------7--9---------7--9---------7--9---------7--9-----------------------------------|

(From "Keep me moving")
|--------------------------------------------------------------------------------------------------|
|--------------------------------------------------------------------------------------------------|
|--------------------------------------------------------------------------------------------------|
|-2--------2----2----------2--------2----2----------2--------2----2----------2--------2----2-------|
|----2--4----------2--4-------2--4----------2--4-------2--4----------2--4-------2--4----------2--4-|
|--------------------------------------------------------------------------------------------------|


(Em7=022030)


G               D
 Out in the woods 

   Em         Em7
Or in the city

             C          Cmaj7  C
It's all the same to me

         D
When I'm driving the worlds my home...


When I'm Mobile!
|--------------------------------------------------------------------------------------------------|
|--------------------------------------------------------------------------------------------------|
|--------------------------------------------------------------------------------------------------|
|-2--------2----2----------2--------2----2----------2--------2----2----------2--------2----2-------|
|----2--4----------2--4-------2--4----------2--4-------2--4----------2--4-------2--4----------2--4-|
|--------------------------------------------------------------------------------------------------|

(From "Play the tape machine, make the toast and tea when I'm mobile")
|--------------------------------------------------------------------------------------|
|-----------------------------------------------------10-10-9--9--7----9---10-10-9--7--|
|-----------------------------------------------------9--9--9--9--9----9---9--9--9--9--|
|-----------------------------------------------------9--9--9--9--9----9---9--9--9--9--|
|-7--7---------7---7--------7--7---------7---7-----------------------------------------|
|--------7--9---------7--9---------7--9---------7--9-----------------------------------|

(From "Well, I can lay in bed with only highway ahead when I'm mobile")
|----------------------------------------------------------------------------------------|
|------------------------------------------------------10-10-7----10-10-7----10-10-7-----|
|------------------------------------------------------9--9--9----9--9--9----9--9--9-----|
|-2--2--------2----2--------2--2---------2----2--------9--9--9----9--9--9----9--9--9-----|
|-------2--4----------2--4--------2---4----------2--4------------------------------------|
|----------------------------------------------------------------------------------------|

(From "Keep me moving")
|--------------------------------------------------------------------------------------------------|
|--------------------------------------------------------------------------------------------------|
|--------------------------------------------------------------------------------------------------|
|-2--------2----2----------2--------2----2----------2--------2----2----------2--------2----2-------|
|----2--4----------2--4-------2--4----------2--4-------2--4----------2--4-------2--4----------2--4-|
|--------------------------------------------------------------------------------------------------|

(From "Keep me moving over 50")
|--------------------------------------------------------------------------------------------------|
|--------------------------------------------------------------------------------------------------|
|--------------------------------------------------------------------------------------------------|
|-2--------2----2----------2--------2----2----------2--------2----2----------2--------2----2-------|
|----2--4----------2--4-------2--4----------2--4-------2--4----------2--4-------2--4----------2--4-|
|--------------------------------------------------------------------------------------------------|

(From "Keep me grooving, just a hippie gypsy")
|--------------------------------------------------------------------------10-10--10-10--10-10--9--|
|--------------------------------------------------------------------------10-10--10-10--10-10--10-|
|--------------------------------------------------------------------------9--9---9--9---9--9---9--|
|-2--------2----2----------2--------2----2----------2--------2----2--------------------------------|
|----2--4----------2--4-------2--4----------2--4-------2--4----------2--4--------------------------|
|--------------------------------------------------------------------------------------------------|


Guitar Solo (An Envelope Follower Synthesizer is in use):
|-----------------------------------------------------------------------------------------|
|-10h12----8h10-8h10-----8h10-8h10----12r10p8------------------------------------------8--|
|---------------------------------------------9---7h9--9-9-9--7h9--9-9-7h9--9-9--7h9-9----|
|-----------------------------------------------------------------------------------------|
|-----------------------------------------------------------------------------------------|
|-----------------------------------------------------------------------------------------|

|-------------------------------------------------------------------------------------|
|-------------------------8b10-----10r8--8--------------------------------------------|
|-7h9-9-7h9-9--7-7---7h9-------9-----------7-9--9-7-9-------------------0-------------|
|--------------------------------------------------------0h2-2---0h2--2-----2---0-----|
|-------------------------------------------------------------------------------------|
|-----------------------------------------------------------------------------------3-|

 Guitar I (electric)
|--------------------------------------------------------------------------------------------------|
|-x-x-x-x----------------------8-----x-x---x-x---x-x---x-x-x-x-x-x-x-x---x-x-x-x-x-x-x-x-x-x-x-x-x-|
|-x-x-x-x-7h9--9-7h9--9-7h9--9----7--x-x---x-x---x-x---x-x-x-x-x-x-x-x---x-x-x-x-x-x-x-x-x-x-x-x-x-|
|-x-x-x-x----------------------------x-x-2-x-x-2-x-x-2-x-x-x-x-x-x-x-x-2-x-x-x-x-x-x-x-x-x-x-x-x-x-|
|-x-x-x-x----------------------------x-x---x-x---x-x---x-x-x-x-x-x-x-x---x-x-x-x-x-x-x-x-x-x-x-x-x-|
|--------------------------------------------------------------------------------------------------|
|Guitar II
|-----------------------------------------------------10-10--10-10-10-10-9---10-10--10-10-10-10-9--|
|-----------------------------------------------------10-10--10-10-10-10-10--10-10--10-10-10-10-10-|
|-----------------------------------------------------9--9---9--9--9--9--9---9--9---9--9--9--9--9--|
|--------------------------------------------------------------------------------------------------|
|--------------------------------------------------------------------------------------------------|
|--------------------------------------------------------------------------------------------------|

|----------------------------------------------------------------------------------------------|
|---x---x----x-----x------x----------x-x---------------------------------------------8------8--|
|---x---x----x-----x------x----------x-x----------7h9--9--7h9--9--7h9--9--9p7----7h9----7h9----|
|---x---x----x-----x------x-----2----x-x-----2-------------------------------------------------|
|---x---x--0-x-0---x------x----------x-x-------------------------------------------------------|
|-3---3----------3----0h3---0------------0-----------------------------------------------------|

|---------------------------------------------------------------|
|---------------------------------------------------------------|
|---------------------------------------------------------------|
|-----2-----2----2----2----2------2------2----------------------|
|-2h4-------------------------2h4----2h4------------------------|
|---------0----0----0----0------------------0---0--0-0-0--0-0-0-|

G         D
 I don't care about pollution

Em           Em7
  I'm an air-conditioned gypsy

C       Cmaj7
 That's my solution

D
  Watch the Police and the Taxman miss me, I'm Mobile

|-17r15-12--17r15-12--17--17--17--17--17-17-15-15-12-12------------------------------------|
|-------------------------------------------------------15-15-12-12------------------------|
|-------------------------------------------------------------------14-14-12-12------------|
|-------------------------------------------------------------------------------14-14-12---|
|------------------------------------------------------------------------------------------|
|------------------------------------------------------------------------------------------|

|--------------------------------------------------|
|--------------------------------------------------|
|--------------------------------------------------|
|-12h14-14-12h14-14-12h14-14-14--14-14-14-14-14-14-|
|--------------------------------------------------|
|--------------------------------------------------|

Outro:
|--------------------------------------------4------------|
|-5h7----7-7-7-5-5-------------------------5---5----------|
|------------------7-------1------------------------------|
|-----------------------2-----4---------------------------|
|---------------------------------------------------------|
|--------------------------------3b4--0-----------5\--0---|


____________________________________________________________________________________________________
____________________________________________________________________________________________________
____________________________________________________________________________________________________


Song: Behind Blue Eyes


Intro (Acoustic):
|-----------------0--------------------------------------0----------|
|-----------0-------0-----0---0----------0-----------------0--------|
|-------2-----2-------2-----2----------2---2-----------2-----2---2--|
|-----2---------2-------2-------2----2-------2---2---2---------2----|
|---2------------------------------2-----------2---2----------------|
|-0-----------------------------------------------------------------|


       Em                     G              D
(From "No one knows what it's like to be the bad man")
|-------0---------------3---------------2-----------3-------2-------|
|---------0-----------0---0-----0-----3---3-----3-----3-------3-----|
|-----------0-------0-------0-------2-------2-----2-----2-------2---|
|-----2---------2-----------------0-----------0-----------0-------0-|
|---2---------------------------------------------------------------|
|-0-----------0---3-----------3-------------------------------------|

                 Cadd9      Asus2
(From "To be the sad man, behind blue eyes")
|-------0---------------0---------------0---------------0---------|
|-----3---3-----------3---3---------------0---------------0-------|
|---0-------0---0---0-------0---0-----2-----2---2-----2-----2-----|
|-----------------------------------2---------------2-----------2-|
|-3-----------3---3-----------3---0-----------0---0-----------0---|
|-----------------------------------------------------------------|

       Em                     G          D
(From "No one knows what it's like to be hated")
|-------0---------------3---------------2-----------2h3-------2-------|
|---------0-----------0---0-----0-----3---3-----3-------3-------3-----|
|-----------0-------0-------0-------2-------2-----2-------2-------2---|
|-----2---------2-----------------0-----------0-------------0-------0-|
|---2-----------------------------------------------------------------|
|-0-----------0---3-----------3---------------------------------------|

             Cadd9             A
(From "To be faded, to telling only lies")
|-------0---------------0---------0-----0---------------0---------|
|-----3---3-----------3---3-------2-------2---------------2-------|
|---0-------0---0---0-------0---0-2---2-----2---2-----2-----2-----|
|---------------------------------2-2---------------2---------2---|
|-3-----------3---3-----------3---0-----------0---0-------------0-|
|-----------------------------------------------------------------|


              C    D              G     C  G
(From "But my dreams, they are as empty     ")
|-0---0---2---2---3---3---0-0--3-3--3-|
|-1---1---3---3---3---3---1-1--3-3--3-|
|-0---0---2---2---0---0---0-0--0-0--0-|
|-2---2---0---0---0---0---2-2--0-0--0-|
|-3---3-----------2---2---3-3--2-2--2-|
|-----------------3---3--------3-3--3-|

             C          D        E
(From "As my conscience seems to be")
|--0---0---2---2-----0-0---0-0-0-0--0-0-|
|--1---1---3---3-----0-0---0-0-0-0--0-0-|
|--0---0---2---2-----1-1---2-2-2-1--1-1-|
|--2---2---0---0-----2-2---2-2-2-2--2-2-|
|--3---3----------------------------2-2-|
|-----------------0------0--------------|

              Bm         C
(From "I have hours only lonely")
|-2---2---2---2----0---0---0---0-|
|-3---3---3---3----1---1---1---1-|
|-4---4---4---4----0---0---0---0-|
|-4---4---4---4----2---2---2---2-|
|-2---2---2---2----3---3---3---3-|
|--------------------------------|

                  D      Dsus4-D            A
(From "My love is vengance     that's never free")
|-2---2---3-3--2-2--2----0---0-----0-0-0---0-0-0-0--------0--------0-----0--0--0--|
|-3---3---3-3--3-3--3----2---2-----2-2-2---2-2-2-2--------2--------2-----2--2--2--|
|-2---2---2-2--2-2--2----2---2-----2-2-2---2-2-2-2--2--2--2--2--2--2-2---2--2--2--|
|-0---0---0-0--0-0--0----2---2-----2-2-2---2-2-2-2--2--2--2--2--2--2-2---2--2--2--|
|------------------------0---0---0-------0-0-0-0-0--0--0-----0--0----0------------|
|---------------------------------------------------------------------------------|

       Em                     G                  D       Dsus4-D
(From "No one knows what it's like to feel these feelings       ")
|-------0---------------3---------------2-----------3-------2-------|
|---------0-----------0---0-----0-----3---3-----3-----3-------3-----|
|-----------0-------0-------0-------2-------2-----2-----2-------2---|
|-----2---------2-----------------0-----------0-----------0-------0-|
|---2---------------------------------------------------------------|
|-0-----------0---3-----------3-------------------------------------|

              Cadd9           A
(From "Like I do, and I blame you")
|-------0---------------0---------------0---------------0---------|
|-----3---3-----------3---3---------------0---------------0-------|
|---0-------0---0---0-------0---0-----2-----2---2-----2-----2-----|
|-----------------------------------2---------------2-----------2-|
|-3-----------3---3-----------3---0-----------0---0-----------0---|
|-----------------------------------------------------------------|

       Em                   G             D    Dsus4-D
(From "No one bites back as hard on their anger       ")
|-------0---------------3---------------2-----------3-3-2-------0-|
|---------0-----------0---0-----0-----3---3-----3---3-3-3-----3---|
|-----------0-------0-------0-------2-------2-----2-2-2-2---2-----|
|-----2---------2-----------------0-----------0-----0-0-0-0-------|
|---2-------------------------------------------------------------|
|-0-----------0---3-----------3-----------------------------------|

                  C                     A
(From "None of my pain and woe can show through")
|-------0---------------0---------0-----------------0-0-0-0---------0--0-|
|-----3---3-----------3---3-------2-----------------2-2-2-2---------2--2-|
|---0-------0---0---0-------0---0-2--2--2--2--2--2--2-2-2-2---2--2--2--2-|
|---------------------------------2--2--2--2--2--2--2-2-2-2---2--2--2--2-|
|-3-----------3---3-----------3---0--0--0--0--0--0--0-0-0-0---0--0--0--0-|
|------------------------------------------------------------------------|

              C    D              G     C  G
(From "But my dreams, they are as empty     ")
|-0---0---2---2---3---3---0-0--3-3--3-|
|-1---1---3---3---3---3---1-1--3-3--3-|
|-0---0---2---2---0---0---0-0--0-0--0-|
|-2---2---0---0---0---0---2-2--0-0--0-|
|-3---3-----------2---2---3-3--2-2--2-|
|-----------------3---3--------3-3--3-|

             C          D        E
(From "As my conscience seems to be")
|--0---0---2---2--------0--0-0--0---0-|
|--1---1---3---3--5\----0--0-0--0---0-|
|--0---0---2---2--4\----1--2-2--1---1-|
|--2---2---0---0--2\----2--2-2--2---2-|
|--3---3------------------------------|
|---------------------0---------------|

              Bm         C
(From "I have hours only lonely")
|-2---2---2---2----0---0---0---0-|
|-3---3---3---3----1---1---1---1-|
|-4---4---4---4----0---0---0---0-|
|-4---4---4---4----2---2---2---2-|
|-2---2---2---2----3---3---3---3-|
|--------------------------------|

                  D      Dsus4-D            A
(From "My love is vengance     that's never free")
|-2---2---3-3--2-2--2----0---0-----0-0-0---0-0-0-0--------0--------0-----0-0-0--|
|-3---3---3-3--3-3--3----2---2-----2-2-2---2-2-2-2--------2--------2-----2-2-2--|
|-2---2---2-2--2-2--2----2---2-----2-2-2---2-2-2-2--2--2--2--2--2--2-2---2-2-2--|
|-0---0---0-0--0-0--0----2---2-----2-2-2---2-2-2-2--2--2--2--2--2--2-2---2-2-2--|
|------------------------0---0---0-------0-0-0-0-0--0--0-----0--0----0----------|
|-------------------------------------------------------------------------------|



Guitar Solo (Electric):
|---------------12--------12------------------------------------12--12--------------------------|
|-------------------------12---------------9----9-9----9--------12--12-------9----9-9-----------|
|--------11b13-----11b13------13r11--9-----9----9-9----9--11b13-----13r11----9----9-9-----------|
|---------------------------------------11---11-----11--------------------11---11-----11-9--9\--|
|-7\--------------------------------------------------------------------------------------------|
|-----0-----------------------------------------------------------------------------------------|


       E              B         A
(From "  When my fist clenches, crack it open")
|------------------------------|
|------------------------------|
|---------------4---4----2--2--|
|-2----2--2-----4---4----2--2--|
|-2----2--2-----2---2----0--0--|
|-0----0--0--------------------|

       E          B          G       D
(From "  Before I use it and lose my cool")
|------------------------3--3-----------|
|------------------------3--3--3---3--3-|
|---------------4---4----4--4--2---2--2-|
|-2----2--2-----4---4----5--5--0---0--0-|
|-2----2--2-----2---2-------------------|
|-0----0--0-----------------------------|

       D        Bm    A            D
(From "  When a smile give me some bad news")
|--------------------------------------------|
|-3----3--3------------------------3----3--3-|
|-2----2--2-----4---4----2---2-----2----2--2-|
|-0----0--0-----4---4----2---2-----0----0--0-|
|---------------2---2----0---0---------------|
|--------------------------------------------|

       D          Bm        A          E
(From "  Before I laugh and act like a fool")
|------------------------------------------------------------------|
|-3----3--3--------------------------------------------------------|
|-2----2--2-----4---4----2---2-------------------------------------|
|-0----0--0-----4---4----2---2--------2-----2---2---2----2-----2---|
|---------------2---2----0---0----------2-----2-------2------2-----|
|----------------------------------0------0----------------0-----0-|

       E          B       A        E
(From "  And if I swallow anything evil")
|------------------------------|
|------------------------------|
|---------------4---4----2--2--|
|-2----2--2-----4---4----2--2--|
|-2----2--2-----2---2----0--0--|
|-0----0--0--------------------|

       E          B      G       D
(From "  Put your finger down my throat")
|------------------------3--3-----------|
|------------------------3--3--3---3--3-|
|---------------4---4----4--4--2---2--2-|
|-2----2--2-----4---4----5--5--0---0--0-|
|-2----2--2-----2---2-------------------|
|-0----0--0-----------------------------|

       D      Bm            A         D
(From "  If I shiver please give me a blanket")
|--------------------------------------------|
|-3----3--3------------------------3----3--3-|
|-2----2--2-----4---4----2---2-----2----2--2-|
|-0----0--0-----4---4----2---2-----0----0--0-|
|---------------2---2----0---0---------------|
|--------------------------------------------|

       D       B            A         E
(From "Keep me warm, let me wear your coat")
|--------------------------------------------------|
|-3----3--3----------------------------------------|
|-2----2--2-----4---4----2---2---------------------|
|-0----0--0-----4---4----2---2--------2-----2---2--|
|---------------2---2----0---0----------2-----2----|
|----------------------------------0------0--------|

|------------------------12------------------------------|
|--------------------------------------------------------|
|-----9----11--9--11b13-----13r11-9----9-9------9------9-|
|-/11---11--------------------------11------11------11---|
|--------------------------------------------------------|
|--------------------------------------------------------|

Guitar I (Electric)
  B     A  G   D     B     A  G   D     B     A  G   D     B
|----------3-------|----------3-------|----------3-------|------------------------|
|----------3---3-3-|----------3---3-3-|----------3---3-3-|------------------------|
|-4-----2--4---2-2-|-4-----2--4---2-2-|-4-----2--4---2-2-|-4-4-4------------------|
|-4-----2--5---4-4-|-4-----2--5---4-4-|-4-----2--5---4-4-|-4-4-4------------------|
|-2-----0----------|-2-----0----------|-2-----0----------|-2-2-2------------------|
|------------------|------------------|------------------|------------------------|
|Guitar II
|---------------------------------------------------------------------------------|
|-------------------------------------------------------------------------4-------|
|-----------------------------------------------------------------------4---4-----|
|---------------------------------------------------------------------4-------4---|
|-------------------------------------------------------------------2-----------2-|
|---------------------------------------------------------------------------------|


Outro:
       Em                     G              D
(From "No one knows what it's like to be the bad man")
|-------0---------------3---------------2-----------3-------2-------|
|---------0-----------0---0-----0-----3---3-----3-----3-------3-----|
|-----------0-------0-------0-------2-------2-----2-----2-------2---|
|-----2---------2-----------------0-----------0-----------0-------0-|
|---2---------------------------------------------------------------|
|-0-----------0---3-----------3-------------------------------------|

                 C          A
(From "To be the sad man, behind blue eyes")
|-------0---------------0----------0----|
|-----3---3-----------3---3--------2----|
|---0-------0---0---0-------0---0--2----|
|----------------------------------2----|
|-3-----------3---3-----------3----0----|
|---------------------------------------|


____________________________________________________________________________________________________
____________________________________________________________________________________________________
____________________________________________________________________________________________________


Song: Won't Get Fooled Again


Intro:

 Guitar I (Electric)
|------------------------------------------------------------------------------------------|
|------------------------------------------------------------------------------------------|
|-2----------------------------------------------------------------------------------------|
|-2----------------------------------------------------------------------------------------|
|-0----------------------------------------------------------------------------------------|
|------------------------------------------------------------------------------------------|
|Guitar II (Synthesizer Tab for Guitar)
|-------------------9----12-12-12-12-12-12-10-9-10-10-10-10-10-10-9----9-9-9-9-10-10-10-10-|
|-10-10-10-10-10-10---12--------------------------------------------12---------------------|
|------------------------------------------------------------------------------------------|
|------------------------------------------------------------------------------------------|
|------------------------------------------------------------------------------------------|
|------------------------------------------------------------------------------------------|

 Guitar II
|-9----9-10-9----9-10-12-10-9----12-10-9----12-10-9----12-10-9----12-10-9----12-10-9----12-10-9----|
|---12--------12--------------10---------10---------10---------10---------10---------10---------10-|
|--------------------------------------------------------------------------------------------------|
|--------------------------------------------------------------------------------------------------|
|--------------------------------------------------------------------------------------------------|
|--------------------------------------------------------------------------------------------------|

|-12-10-9----12-10-9----12-10-9----12-10-9----12-10-9--------9-10-9----9-10-9----9-10-9----9-10-9-|
|---------10---------10---------10---------10---------10--10--------10--------10--------10--------|
|-------------------------------------------------------------------------------------------------|
|-------------------------------------------------------------------------------------------------|
|-------------------------------------------------------------------------------------------------|
|-------------------------------------------------------------------------------------------------|

|----9-10-9----9-10-9----9-10-9----9-10-9----9-10-9----9-10-9----9-10-9----|
|-10--------10--------10--------10--------10--------10--------10--------10-|
|--------------------------------------------------------------------------|
|--------------------------------------------------------------------------|
|--------------------------------------------------------------------------|
|--------------------------------------------------------------------------|


(Guitar Come In)

(00:30)
|------------------------------------------------------|
|------------------------------------------------------|
|---2--------2--------2---2---2------------6r4p2---2---|
|---2--------2--------2---2---2------------------------|
|---0--------0--------0---0---0------------------------|
|-3--------3--------3----------------------------------|


(From "We'll be fighting in the streets...")
|-----------------------------------------------0---0------|
|-----------------------------------------------0---1----3-|
|-2-------------------2-------------------------1---0----0-|
|---2-----2--2-2-----------2-2----------------------2----0-|
|---0---0-0--------0----0--0-0----0-----------------3------|
|------------------------------------3b3.5--0----------3---|

(From "And the men who spurred us on...")
|----5-----------5----5---------5---------------------0---0------|
|----5-----------5----5---------5---------------------0---1----3-|
|----6-----------6--------------6-----2---------------1---0----0-|
|---------------------------------------------------------2----0-|
|-0-------0---0----------0---0----------------------------3------|
|---------------------------------------3b3.5--3--0----------3---|

(From "I tip my hat to the new constitution...")
 Guitar
|---2---5-------2---5-----------2---5-------2---5-----------2---5-------2---5-------|
|-----------------------------------5-----------------------------------------------|
|-----------------------------------------------------------------------------------|
|-----------------------------------------------------------------------------------|
|-0---0-------0---0-----------0---0-------0---0-----------0---0-------0---0---------|
|-----------------------------------------------------------------------------------|
|Bass
|-----------------------------------------------------------------------------------|
|-4-2---------4-2-------------4-2---------4-2-------------4-2---------4-2-----------|
|-----4-2-0-------4-2-4-2-0-------4-2-0-------4-2-4-2-0-------4-2-0-------4-2-0-----|
|-------------------------------------------------------------------------------2-0-|

(From "Pick up my guitar and play...")
|----3-------4----2----0-------7-----4----2-------4------7----2----3--2--------2-|
|----3--------------------------------------------------------3----3--3--------3-|
|---------/4----2----1-----4/7----/4----2-----1/4-----/7------2----0--2--------2-|
|-------------------------------------------------------------0----0--0--------0-|
|--------------------------------------------------------------------------3-----|
|-3------------------------------------------------------------------------------|

|------3--2---------3--2-------5-----5-----5------2--2-2-2----5-----5-5--2--|
|-2----3--3----2----3--3-------5-----5-----5------3--3-3-3----5-----5-5--3--|
|-2----0--2----2----0--2--------------------------2--2-2-2---------------2--|
|-2----0--0----2----0--0--------------------------0--0-0-0---------------0--|
|-0------------0------------0----0-0---0-0---0-0------------0---0-0---------|
|---------------------------------------------------------------------------|

(From "The change it had to come...")
|---------------------------------------------0----0------|
|---------------------------------------------0----1----3-|
|-2----------2-2----------2-2-----------------1----0----0-|
|-2------------------------------------------------2----0-|
|-0------0----------0--0--------0------------------3------|
|----------------------------------3b3.5--0-----------3---|

(From "And the world looks just the same...")
|--------9\---9\---9------9\---9\---9-------------0----0------|
|-------10\--10\--10-----10\--10\--10-------------0----1----3-|
|--------9\---9\---9------9\---9\---9-------------1----0----0-|
|------------------------------------------------------2----0-|
|-0----------------------------------------------------3------|
|---------------------------------------------0-----------3---|

(From "I tip my hat to the new constitution...")
 Guitar
|---2---5-------2---5-----------2---5-------2---5-----------2---5-------2---5-------|
|-----------------------------------5-----------------------------------------------|
|-----------------------------------------------------------------------------------|
|-----------------------------------------------------------------------------------|
|-0---0-------0---0-----------0---0-------0---0-----------0---0-------0---0---------|
|-----------------------------------------------------------------------------------|
|Bass
|-----------------------------------------------------------------------------------|
|-4-2---------4-2-------------4-2---------4-2-------------4-2---------4-2-----------|
|-----4-2-0-------4-2-4-2-0-------4-2-0-------4-2-4-2-0-------4-2-0-------4-2-0-----|
|-------------------------------------------------------------------------------2-0-|

(From "Pick up my guitar and play...")
|----3---------------------------7---12---------12---------12-----------3---2----3--2----3--5---10-|
|----3----12r10----8--8-----------------15b17------15b17------15b17-----3---3----3--3----3--5---10-|
|---------------9-------9----6/7--------------------------------------------2----0--2----0--6------|
|---------------------------------------------------------------------------0----0--0----0--7------|
|--------------------------------------------------------------------------------------------------|
|-3------------------------------------------------------------------3-----------------------------|

|------3--2--------3-|---------------------2--2------------------------2--2---|
|-2----3--3---2----3-|---------------------3--3------------------------3--3---|
|-2----0--2---2----0-|-2---2-2---2---2---2-2--2----2---2-2---2---2---2-2--2---|
|-2----0--0---2----0-|-2---2-2---2---2---2-0--0----2---2-2---2---2---2-0--0---|
|-0-----------0----2-|-0---0-0---0---0---0---------0---0-0---0---0---0--------|
|------------------3-|---------3-------3-------------------3-------3----------|

|---------------------2--2------------------------2--2---|
|---------------------3--3------------------------3--3---|
|-2---2-2---2---2---2-2--2----2---2-2---2---2---2-2--2---|
|-2---2-2---2---2---2-0--0----2---2-2---2---2---2-0--0---|
|-0---0-0---0---0---0---------0---0-0---0---0---0--------|
|---------3-------3-------------------3-------3----------|

|-5-----5-----5--------------------5-----5-----5--------------------5-----5-----5------------------|
|-5-----5-----5------3-3-3-3-3-3---5-----5-----5------3-3-3-3-3-3---5-----5-----5------3-3-3-3-3-3-|
|---2-----2-----2----2-2-2-2-2-2-----2-----2-----2----2-2-2-2-2-2-----2-----2-----2----2-2-2-2-2-2-|
|--------------------2-2-2-2-2-2----------------------2-2-2-2-2-2----------------------2-2-2-2-2-2-|
|-----0-----0-----0--0-0-0-0-0-0-------0-----0-----0--0-0-0-0-0-0-------0-----0-----0--0-0-0-0-0-0-|
|--------------------------------------------------------------------------------------------------|

|-5-----5---------|
|-5-----5------3--|
|---2-----2----2--|
|--------------2--|
|-----0-----0--0--|
|-----------------|


(From "I move myself and my family aside")
|---------------------------0-------------------------5----------------------------------------|
|-------------2-------------0---------------2-----------------------5-5--4---------------------|
|----4-----/4---4-2---2-----1---------------2----4b6----4-2---------4-4--4--4--4----4--4-------|
|----4--------------4-------2------0h2-2----2-------------------------------4--4----4--4-------|
|-2------------------------------2--------0--------------------2------------2--2----2--2-------|
|------------------------0----------------------------------------------------------------0-0--|

|-------------------------------------------------------------------0---|
|---------x-x-x---------------------x-x-x-------------------x-x-----0---|
|---4--4--x-x-x--4-----------4---4--x-x-x--4---------4---4--x-x--4--1---|
|---4--4--x-x-x--4--2-2------4---4--x-x-x--4--2-2----4---4--x-x--4--2-2-|
|-2----2--x-x-x--2--2-2---0--2---2--x-x-x--2--2-2----2---2--x-x--2--2-2-|
|-------------------0-0-----------------------0-0-------------------0-0-|


Guitar Solo:
|----------------------------7----------7----------7--------------------------------------|
|-7------------------10---10---10-10-10---10-10-10---10-10--10-10--10-10--9-9--9-9--------|
|-7-------11r9p7--------------------------------------------------------------------7b8---|
|----9-----------9----------------------------------------------------------------------9-|
|-----------------------------------------------------------------------------------------|
|-----------------------------------------------------------------------------------------|

|--------------------------------------------------------------------------------------------|
|-10b12---12-12r10--10-10-10--7------7----7----7----7----------------------------------------|
|-------------------11-11-11--8------7b8--7b8--7b8--7b8r7-----------------------7------------|
|--------------------------------9------------------------7-9-------7---7--9----9-7----------|
|---------------------------------------------------------------7h9---9-------------9-7------|
|---------------------------------------------------------------------------------------10-7-|

|----------------------------------------------------------------------------|
|----------------------7----7----7----------------------------7---7----------|
|-----7------7----9----7h8--7h8--7h8--7-6----9-9----9-9-------8---8-7-6----9-|
|-7---7-9----7-9--9-----------------------9-----------------------------9--9-|
|-7h9------9----------------------------------------------7h9---9------------|
|----------------------------------------------------------------------------|

|--------3--2-----------3--2-----------3--2-----------3---2---|
|-2------3--3----2------3--3----2------3--3----2------3---3---|
|-2------0--2----2------0--2----2------0--2----2------0---2---|
|-2------0--0----2------0--0----2------0--0----2------0---0---|
|-0--------------0--------------0--------------0--------------|
|-------------------------------------------------------------|


(From "There's nothing in the streets...")
|----5--5-5-------------------------------------------------0---------2--|
|----5---------------------------------3--------------------0----3-3--3--|
|------------6r4p2---2----------2-2----2-----2---2----------1----0-0--2--|
|------------------4--------------2----------2---2----------2----0-0--0--|
|-0---------------------3b4--0-------0----0--0---0-----------------------|
|---------------------------------------------------3b4--0---------------|

(From "And the parting on the left...")
|------------------------------------------------------------5---0----2-2--3-|
|----------------------------------------------------------------0----3-3--3-|
|----6r4-2---2-2------2-2---2-2-x--2-2-2-------2-2---2---2-------1----2-2--0-|
|----------4-----------------------------------------------------2----0-0--0-|
|-0----------------0------0-----------------0--------------------------------|
|----------------------------------------------------------------------------|

(From "I tip my hat to the new constitution...")
 Guitar
|---2---5-------2---5-----------2---5-------2---5-----------2---5-------2---5-------|
|-----------------------------------5-----------------------------------------------|
|-----------------------------------------------------------------------------------|
|-----------------------------------------------------------------------------------|
|-0---0-------0---0-----------0---0-------0---0-----------0---0-------0---0---------|
|-----------------------------------------------------------------------------------|
|Bass
|-----------------------------------------------------------------------------------|
|-4-2---------4-2-------------4-2---------4-2-------------4-2---------4-2-----------|
|-----4-2-0-------4-2-4-2-0-------4-2-0-------4-2-4-2-0-------4-2-0-------4-2-0-----|
|-------------------------------------------------------------------------------2-0-|

(From "Pick up my guitar and play...")
|-12--12----------------------------------------------------------------------------------------|
|--------15-12-----------------------12---------------------------------------------------------|
|--------------14b16-14-12-----------------12b13----11---------11----11b12---12r11-----------11-|
|--------------------------14--12h14-------------14----11-14------14---------------14-----------|
|--------------------------------------------------------------------------------------10h12----|
|-----------------------------------------------------------------------------------------------|

|---------------10--------------------------------------------------------|
|----------10------------------------------------------------3---------3--|
|-11----------------11-12--11-------2----2-2-------2-2-------2----2----0--|
|----12-----------------------------2----2-2-------2-2------------2----0--|
|-------12--------------------------0---------0---------0---------0-------|
|-------------------------------------------------------------------------|

2nd Guitar Solo:
|-5-----5-----5--------------------5-----5-----5--------------------5-----5-----5------------------|
|-5-----5-----5------3-3-3-3-3-3---5-----5-----5------3-3-3-3-3-3---5-----5-----5------------------|
|---2-----2-----2----2-2-2-2-2-2-----2-----2-----2----2-2-2-2-2-2-----2-----2-----2----------------|
|--------------------2-2-2-2-2-2----------------------2-2-2-2-2-2---------------------------2------|
|-----0-----0-----0--0-0-0-0-0-0-------0-----0-----0--0-0-0-0-0-0-------0-----0-----0--2b4---2-2-0-|
|--------------------------------------------------------------------------------------------------|

|-5-----5-----3--2------------------------------------------------------------3-2-3-2--2-|
|-5-----5-----3--3------------------------------------------------------------3-3-3-3--3-|
|---2-----2---0--2------2p0---2p0---2p0---2p0---2p0---2p0---2p0---2p0---2-----2-2-2-2--2-|
|-------------0--0------------------------------------------------------2-----0-0-0-0--0-|
|-----0-----0--------0------0-----0-----0-----0-----0-----0-----0-----0----0-------------|
|----------------------------------------------------------------------------------------|

|-------------------------------------------------------------------------------------------------|
|-17------17-----17-------17--17-17---17----------3-1---3-1---3-1---3-1----3-1---3-1---3-1---3-1--|
|-16b18---16b18--16-16b18-----18-16---16-14-14----2-2---2-2---2-2---2-2----2-2---2-2---2-2---2-2--|
|-------------------------------------------------------------------------------------------------|
|-------------------------------------------------------------------------------------------------|
|-------------------------------------------------------------------------------------------------|

|---------------------------------------------------------------------------------------------|
|-------3---3-------------------3--3-3----17-17-17-17-17-17-17-17-17-17-17-17-17-17-17-17-17^-|
|-2-----0---2----2------2-2-2---2--2-2----17-17-17-17-17-17-17-17-17-17-17-17-17-17-17-17-17^-|
|-2-2---0---0----2------2-2-2---0--0-0--------------------------------------------------------|
|-0---0----------0------0-0-0-----------------------------------------------------------------|
|---------------------------------------------------------------------------------------------|

|----------------------------------------------------|
|--------17-----17-----------------------------------|
|-16b18-----18--18r16-----6r4-2--------2---------2---|
|--------------------------------------2---------2---|
|--------------------------------4-0---0---------0---|
|----------------------------------------------------|


Synthesizer Solo Tab for Guitar:
|-9----9----9----9----9-10-9----9----9----9----9----10----10----10-10-9----9-10-9----9-10-9----|
|---12---12---12---12--------12---12---12---12---12----12----12---------12--------12--------12-|
|----------------------------------------------------------------------------------------------|
|----------------------------------------------------------------------------------------------|
|----------------------------------------------------------------------------------------------|
|----------------------------------------------------------------------------------------------|

|-9-10-9----9-10-9----------------------9-12-10-9----10-9----10-9----10-9----10-9----10-9----|
|--------12--------12-10-10-10-10-10-10-----------12------12------12------12------12------12-|
|--------------------------------------------------------------------------------------------|
|--------------------------------------------------------------------------------------------|
|--------------------------------------------------------------------------------------------|
|--------------------------------------------------------------------------------------------|

|-10-9----10-9----10-9----10-9----9-10-9----------------------------9----9----10-9----|
|------12------12------12------10--------------------------------10---10---10------10-|
|----------------------------------------9-9-10-10-9-9-------9-9----------------------|
|------------------------------------------------------12-12--------------------------|
|-------------------------------------------------------------------------------------|
|-------------------------------------------------------------------------------------|

|----9----9----10-9----------9----------9----------9----9----9----9----9----9-10--10-9----9----|
|-10---10---10------10----10---10----10---10----10---10---10---10---10---10------------10---10-|
|----------------------12---------12---------12------------------------------------------------|
|----------------------------------------------------------------------------------------------|
|----------------------------------------------------------------------------------------------|
|----------------------------------------------------------------------------------------------|

|-9----10----9----9----10-9-9----9----10----9----9----10-9----9----10-9------------------------|
|---10----10---10---10--------10---10----10---10---10------12---10------10---------------------|
|--------------------------------------------------------------------------9-9-------9-9-------|
|------------------------------------------------------------------------------12-12-----12-12-|
|----------------------------------------------------------------------------------------------|
|----------------------------------------------------------------------------------------------|

|----9-10-9-------------------------------9-10-9----------9-10-9-------9-10-10-9----|
|-10-------12-12-10-10-------10-10--10-12--------12-10-10--------10-12-----------12-|
|----------------------12-12--------------------------------------------------------|
|-----------------------------------------------------------------------------------|
|-----------------------------------------------------------------------------------|
|-----------------------------------------------------------------------------------|

|----------------------------------------------9-10-10-10----17-17-17-17-17-17-17-17-|
|-10-10-12----10-10-12----10-10-12----10-10-12------------10-------------------------|
|----------12----------12----------12------------------------------------------------|
|------------------------------------------------------------------------------------|
|------------------------------------------------------------------------------------|
|------------------------------------------------------------------------------------|

|-17-17-17-17-------------17-17-17-17-17-17-17-17-------------17-17-17-17-17-17-17-17-|
|-------------------------------------------------------------------------------------|
|-------------14-14-14-14-------------------------14-14-14-14-------------------------|
|-------------------------------------------------------------------------------------|
|-(Drums_come_in)---------------------------------------------------------------------|
|-------------------------------------------------------------------------------------|

|-------------17-17-17-17-17-15-15-15-14-14-14-14-14-14-14-14-|
|-------------------------------------------------------------|
|-14-14-14-14-------------------------------------------------|
|-------------------------------------------------------------|
|-------------------------------------------------------------|
|-------------------------------------------------------------|
End Of Solo

(From "Yeah!")
|----------3--2-2--------------3--2-2----|
|----------3--3-3--------------3--3-3----|
|-2--------0--2-2-----2--------0--2-2----|
|-2--------0--0-0-----2--------0--0-0----|
|-0-------------------0------------------|
|----------------------------------------|

(From "Meet the new boss, same as the old boss")
|----------3--2-2--------------3--2-2---------------------3-2--------------------3-2--|
|----------3--3-3--------------3--3-3---------------------3-3--------------------3-3--|
|-2--------0--2-2-----2--------0--2-2----2---2-2---2-2----0-2---2---2-2---2-2----0-2--|
|-2--------0--0-0-----2--------0--0-0----2---2-2---2-2----0-0---2---2-2---2-2----0-0--|
|-0-------------------0------------------0---0-0---0-0----------0---0-0---0-0---------|
|------------------------------------------------------3----------------------3-------|

|------------------3-2--------------------3-2--|
|------------------3-3--------------------3-3--|
|-2---2-2---2-2----0-2---2---2-2---2-2----0-2--|
|-2---2-2---2-2----0-0---2---2-2---2-2----0-0--|
|-0---0-0---0-0----------0---0-0---0-0---------|
|---------------3----------------------3-------|


Outro:
|----5-----5-----5-----2--2-------5-----5-----5-----2--2---|
|----5-----5-----5-----3--3-------5-----5-----5-----3--3---|
|----------------------2--2-------------------------2--2---|
|----------------------0--0-------------------------0--0---|
|-0----------------------------0---------------------------|
|------3-5---3-5---3-5--------------3-5---3-5---3-5--------|

|-9---------9-----------------------|
|-10--------10--------2---------x---|
|-9----2----9----2----2---------x---|
|------2---------2----2---------x---|
|------0---------0----0-----------0-|
|-----------------------------------|
comments
print report bad tab
8 comments total. Showing first comments.
0 reply
Zoso68 wrote on July 4 2006, 05:57 pm

yea! first post

0 reply
Lydian_Mode wrote on July 4 2006, 07:50 pm

That was Amazing! Finally a good tab of Going Mobile and the synth arranged for guitar in Won't Get Fooled Again

0 reply
Nemesis_x wrote on July 5 2006, 07:51 am

Wow, the synth tabbed for guitar, very accurate and complete tabs, that's a great job. Thanks!

I want to post or [tab]
guest
You may want to rate the tab now too:
select rating
Please do not post tabs as comments. Select "correction" instead!