Oops, an error
Loading. Please wait.

Diner Chords

394 views 3 this week
no commentswrite comment
1 2 3 4 5
excellent!
x 1
Autoscroll
+/-
esc
set tempo
stop
Difficulty
intermediate
Hey! There's an official Ultimate Guitar app which is ideal
for learning songs when you're away from computer. Get the app
WARNING: You are trying to view
                                    content from Ultimate-Guitar.com
                                    in an unauthorized application,
                                    which is prohibited.

                                    Please use an official Ultimate
                                    Guitar Tabs application for iPhone,
                                    iPad or Android to access legitimate
                                    chords, guitar, bass, and drum tabs
                                    from Ultimate-Guitar.com database.

                                    Type "ultimate guitar tabs" in Apple
                                    App Store's or Android Market's
                                    search to find the application.
Lyrics transcribed by:   Brian Whitman
Music transcribed by:    Pete Millett 
Kevin Watson 
Scott Holcomb
This song has several "themes" which are very
harmonious and are sequenced troughout the song.
Once you get these themes, there's nothing to
the song. Houser showed me this one so its accurate.

Theme 1:
  /  /   /  /  /  /  /  /   /  /  /  /
  G    F       C     G      F
|-3----5-----|-3--3--3----|-1----------|
|-3----6-----|-3--3--3----|-1----------|
|-0----5-----|-0--0--0----|-2----------|
|-0----------|-2--x--0----|-3----------|
|-2----------|-3--2--2----|-3----------|
|-3----------|-------3----|-1----------|

Verse 1:
G         F           C              G       F
Beautiful, the girl's cooking in the diner today
        G              F
Oh, she won't show the bother,
     C             G          F
Even time she gets covered in blues

Theme 2, taking the song a little darker:
you will hold the same chord shape, letting it flow. . .

Theme 2:
  /  /  /  /   /  /  /  /
  G     Eb     C     Bb
|-3-----6----|-3-----6----|
|-3-----6----|-3-----6----|
|-0-----0----|-0-----0----|
|-0-----5----|-2-----0----|
|-2-----6----|-3-----5----|
|-3----------|-------6----|

       G           Eb
I sing kind little songs
C         Bb             G   Eb   C   Bb
Trying to bait her soul
          G    Eb      C
And she's like natural music
   Eb      G      Eb   C   Bb
Anyway she moves

back to Theme 1


Verse 2:
Oh in time, time, time, I just love to watch her hands move
A little sugar, pepper,
Little brother wants to shine my shoes
   (move to Theme 2)
Go ahead, shine, shine, shine, I'll sit real still
And my backbone shivers as she looks this way
And I try not to move

She's beautiful - natural
Hangin in the diner basking in the light of Ms. Lee

Verse 2 (original lyrics):
Given time, Lord I'd build her a mountain for a room.
Given an hour, an hour, I'd build a rocket to the moon.
   (move to Theme 2)
Might take at least a week to find the strongest tool
Might take the rest of this lifetime
To find the strongest fuel

But she natural, she take the moon and put it in her pocket
She's beautiful, smiling it on me while I build this rocket

Jam section:
   /  /  /  /    /  /  /  /  x3  /  /  /  /    /  /  /  /
|--5-----6----|--6-----3------|--5-----6----|--8-----10----|
|--5-----6----|--6-----3------|--5-----6----|--10----12----|
|.-7-----8----|--6-----4-----.|--7-----8----|--10----12----|
|.-7-----8----|--8-----5-----.|--7-----8----|--8-----10----|
|--5-----6----|--8-----5------|--5-----6----|--8-----10----|
|--x-----x----|--6-----3------|--x-----x----|--x-----x-----|
  (D7)  (D#7)   (Bb7) (G)       (D7)  (D#7)   (F7)  (G7)

Solo in F penatonic (I think that's what you call that
scale, maybe it's Gm penatonic) over the first section of
above.  Move to the last section the last time through.

back to Theme 1

Verse 3:
Because the tounge tastes so old,
Can't even load you coffee sweet
When she serves a bowl of lightning,
Makes sure you get all you need
   (move to Theme 2)
Sometimes come for a menu, some just come in to breathe
Hanging in the diner sitting in the light of Ms. Lee

She's beautiful - natural
Hanging in the diner, basking in the light,
Basking in the light…

another jam section (see above)

Verse 4:
She's beauty, yeah, the girl's cooking in the diner today
No, she won't show the bother,
Even time she gets covered in blues
I sing comical songs trying to blame myself
She's all-ready music in a booth, man, if she catch you

Then it progresses to the slower part as Houser gears up:


Theme 3:
  /  /  /  /   /  /  /  /
|-5-----6----|-3-----6----|
|-5-----6----|-3-----6----|
|-x-----0----|-0-----0----|
|-x-----5----|-2-----0----|
|-5-----6----|-3-----5----|
|------------|-------6----|

This goes on for a few bars as Schools works around.
Then back to Theme 2 for the remainder, this time with
a sweeping pick motion:

   /   /    /   /       /   /    /   /
|--3--------6--------|--3--------6-------|
|--3-3------6-6------|--3-3------6-6-----|
|--0---0----0---0----|--0---0----0---0---|
|--0-----0--5-----5--|--2-----2--0-----0-|
|--2--------6--------|--3--------5-------|
|--3-----------------|-----------6-------|

Mikey also adds the following fill on occasion.

melody riff near end of song:
|---------------------------|
|--11-10-8----8-----8-------|
|----------10----0----10-7--|
|---------------------------|
|---------------------------|
|---------------------------|

Hanging in the diner
Sitting in the light of Ms. Lee
Opening up early
Help a poor boy up
Open on Sunday, all day
Little sunshine rising from the park
Cross the street to the path
Keeping my teeth long and longer
And a smile...

Hanging in the light
Hanging in the light
Sister
Sister

End with a pause on the Bb, then a G
comments
We did not receive enough feedback on this tab! Please rate:
print report bad tab
1 2 3 4 5
I want to post or [tab]
guest
You may want to rate the tab now too:
select rating
Please do not post tabs as comments. Select "correction" instead!