Oops, an error
Loading. Please wait.

Hate It Here Tab

32,026 views 120 this week
9 commentsread comments
1 2 3 4 5
accurate
x 7
Autoscroll
+/-
esc
set tempo
stop
WARNING: You are trying to view
                                    content from Ultimate-Guitar.com
                                    in an unauthorized application,
                                    which is prohibited.

                                    Please use an official Ultimate
                                    Guitar Tabs application for iPhone,
                                    iPad or Android to access legitimate
                                    chords, guitar, bass, and drum tabs
                                    from Ultimate-Guitar.com database.

                                    Type "ultimate guitar tabs" in Apple
                                    App Store's or Android Market's
                                    search to find the application.
Song: Hate It Here 
Album: Sky Blue Sky
Band: Wilco

A dim      

e|-2-|   
B|-1-|
G|-2-|
D|-1-|
A|-x-|
E|-x-|

D dim

e|-1-|   
B|-0-|
G|-1-|
D|-0-|
A|-x-|
E|-x-|


A                    D
    I try to stay busy
C#m                                      D
    I do the dishes, I mow the lawn
A                                 A dim
    I try to keep myself occupied
        D dim                                          A
Even though I know you're not coming home


I try to keep the house nice and neat
I make my bed I change the sheets
I even learned how to use the washing machine
But keeping things clean doesn't change anything

What am I gonna do when I run out of shirts to fold?
What am I gonna do when I run out of lawn to mow?
What am I gonna do if you never come home?
Tell me, what am I gonna do?

Riff
e|----------------|
B|----------------|
G|----------------|
D|----------------|
A|-----0---0-0----|
E|-0h2---2--------|



I'm not quite sure about the chorus. Any ideas?
The E-riff goes something like this:

e|-------------------------|
B|-------------------------|
G|-----------7-6---6------|
D|-----6-9-------9--------|
A|-7-7----------------7-7-|
E|-------------------------|


E
          I hate it
D
          I hate it here
E
          When you're gone
D



I caught myself thinking
I caught myself thinking once again
Have to try to keep my mind out of this
Try not to pretend

I'll check the phone
I'll check the mail
I'll check the phone again and I call your mom
She says you're not there and I should take care

I hate it here
When you're gone
I hate it
I hate it here
When you're gone

I try to stay busy
I take out the trash, I sweep the floor
Try to keep myself occupied
Cause I know you don't live here anymore
comments
print report bad tab
9 comments total. Showing first comments.
-1 reply
67SG wrote on August 26 2007, 09:20 pm

The chorus is (This from memory but I think it's right):
-----------------------------------------------
-----------------------------------------------
----------7-6---6-------------------5-4---4----
------6-9-----9-----------------4-7-----7------
--7-7-------------7-7\------5-5-------------5-5
-----------------------------------------------

0 reply
GTheft wrote on November 9 2007, 02:58 pm

The chorus is:


---------------------------------------------
---------------------------------------------
----------7-6--------------------------------
------6-9-----9-6-----------3-4-5-5-6-7------
--7-7-------------7-7---5-5-------------5-5--
---------------------------------------------



also, i think the A dim and D dim sounds better voiced like this:
e|-x-|

B|-7-|
G|-5-|
D|-7-|
A|-6-|
E|-x-|

e|-x-|
B|-x-|
G|-7-|
D|-9-|
A|-11-|
E|-10-|

I also use all bar
chord A's and D's just cuz i think it sounds better...

0 reply
dmckenzie wrote on January 10 2008, 03:35 pm

It sounds good if you play it like the tab but just use D7 instead of the Ddim. And the chorus chords are E D A

I want to post or [tab]
guest
You may want to rate the tab now too:
select rating
Please do not post tabs as comments. Select "correction" instead!