Oops, an error
Loading. Please wait.

All The Kings Men Bass Tab

ver2
ver2

Whole song

More versions @911Tabs.com
1,594 views 9 this week
no commentswrite comment
1 2 3 4 5
excellent!
x 2
add to favorites launch autoscroll
font size
0
reset
Autoscroll
+/-
esc
set tempo
stop
Contributor
Difficulty
novice
WARNING: You are trying to view
                                    content from Ultimate-Guitar.com
                                    in an unauthorized application,
                                    which is prohibited.

                                    Please use an official Ultimate
                                    Guitar Tabs application for iPhone,
                                    iPad or Android to access legitimate
                                    chords, guitar, bass, and drum tabs
                                    from Ultimate-Guitar.com database.

                                    Type "ultimate guitar tabs" in Apple
                                    App Store's or Android Market's
                                    search to find the application.
Wild Beasts
All The King's Men

This is complete and accurate as far as I can tell. This is my first tab so please 
let me know if something's off.

Intro
G-------------------------------------------------------|
D-------------------------------------------------------|
A-10-1010-10-1010-10-1010-10-1010-----------------------|
E---------------------------------0p66-0p66-0p66-0p66---|

G-------------------------------------------------------|
D-------------------------------------------------------|
A-3333333333-6666666666---------------------------------|
E-----------------------0p66-0p66-0p66-0p66-------------|

Verse
G----10----14---10----14-1515------------1515*-----------|
D--8----12----8----12---------12--15--12------12--15--12-|
A--------------------------------------------------------|
E--------------------------------------------------------|

Course 
G-------------------------------------------------------|
D-------------------------------------------------------|
A-10-1010-10-1010-10-1010-10-1010-----------------------|
E---------------------------------0p66-0p66-0p66-0p66---|

G-------------------------------------------------------|
D-------------------------------------------------------|
A-3333333333-6666666666---------------------------------|
E-----------------------0p66-0p66-0p66-0p66-------------|

G-------------------------------------------------------|
D------------------7777--8888---------------------------|
A-10-1010-10-1010---------------------------------------|
E-------------------------------0p66-0p66-0p66-0p66-----|

G-------------------------------------------------------|
D-------------------------------------------------------|
A-3333333333-6666666666---------------------------------|
E-----------------------0p66-0p66-0p66-0p66-------------|

Outro
G-------------------------------------------------------|
D--------7-7-(8)----------------------------------------|
A-10-10-------------------------------------------------|
E-------------------------------------------------------|

*There is often another 15, about every other time, in this case strum it instead.

These videos helped:
http://www.youtube.com/watch?v=OYHXAMeJasE
http://www.youtube.com/watch?v=uAz1yza_cu0

Lyrics:
Whooooa oooh whoooa ooh ohh

Watch me, watch me
The belle of the ball
my heart, my hand and everything I own
We are the boys with new shiny shoes
we've seen them all and we've chosen you

Now no one will find your limit
Girls from Roedean
Girls from Shipley
Girls from Hounslow
Girls from Whitby
You're a candied queen
And let me show my darling what that means

Watch me, watch me
Whooaaaa ooooh oh

Hatch me, hatch me, a girl before
bouncing round behind the bedroom doors
And we are the boys
Who'll drape you in jewels
Cut off your hair, and throw out your shoes

Cause baby, you won't need them
where you'll be girls astride me
Girls beneath me
Girls before me
Girls between me
You're birthing machines
And let me show my darling what that means

hatch me! hatch me!
Wild Beasts Lyrics on anekatips.com

And baby, cause I'm evil
Iin all my dreams, girls who'll clothe me
Girls who'll feed me
Girls who want me
Girls who need me
All you pretty things waiting for somebody
Number my babies and my broken body
comments
We did not receive enough feedback on this tab! Please rate:
1 2 3 4 5
I want to post or [tab]
guest
You may want to rate the tab now too:
select rating
Please do not post tabs as comments. Select "correction" instead!