Oops, an error
Loading. Please wait.

Do The Channel Bop Tab

864 views 1 this week
no commentswrite comment
1 2 3 4 5
accurate
x 1
Autoscroll
+/-
esc
set tempo
stop
Contributor
NEW! There's an official Ultimate Guitar app which is ideal
for learning songs when you're away from computer. Get the app
WARNING: You are trying to view
                                    content from Ultimate-Guitar.com
                                    in an unauthorized application,
                                    which is prohibited.

                                    Please use an official Ultimate
                                    Guitar Tabs application for iPhone,
                                    iPad or Android to access legitimate
                                    chords, guitar, bass, and drum tabs
                                    from Ultimate-Guitar.com database.

                                    Type "ultimate guitar tabs" in Apple
                                    App Store's or Android Market's
                                    search to find the application.
Band: The Wildhearts
Song: Do the Channel bop
Album: Fishing For Luckies
Tuning: Eb


 x = mute strings

eb|------------------------------------------------------|
Bb|------------------------------------------------------|
Gb|------------------------------------------------------|
Db|------------------------------------------------------|
Ab|------------------------------------------------------|
Eb|--3--3-4-5--5-6-7-0--5--5-4-3--3-4-5--5-6-7--0--0--0--|


eb|----------------------------------------------------------------------------------------------------------------|
Bb|----------------------------------------------------------------------------------------------------------------|
Gb|--------------------------------------------------------------------------------------9-9-9-9-9-9-9-9-9-9-9-9---|
Db|--------------------------------------------------------------------------------------9-9-9-9-9-9-9-9-9-9-9-9---|
Ab|--------------------------------------------------------------------------------------7-7-7-7-7-7-7-7-7-7-7-7---|
Eb|--0-3--3-4-5--5-6-7-0--5--5-4-3--3-4-5--5-6-7--0--0--0--0--0--0-6-7-5-6-7--0--0--0--0---------------------------|


eb|------------------------------------------------------|
Bb|------------------------------------------------------|
Gb|------------------------------------------------------|
Db|------------------------------------------------------|
Ab|--5--5-6-7--7-8-9-2--7--7-6-5--5-6-7--7-8-9--2--2--2--|
Eb|--3--3-4-5--5-6-7-0--5--5-4-3--3-4-5--5-6-7--0--0--0--|


eb|-----------------------------------------------------------------------------------------------------------|
Bb|-----------------------------------------------------------------------------------------------------------|
Gb|-----------------------------------------------------------------------------------------------------------|
Db|-----------------------------------------------------------------------------------------------------------|
Ab|--2-5--5-6-7--7-8-9-2--7--7-6-5--5-6-7--7-8-9--2--2--2--2--2--7-8-9-7-8-9--2--2--2--2--2--7-8-9-7-8-9------|
Eb|--0-3--3-4-5--5-6-7-0--5--5-4-3--3-4-5--5-6-7--0--0--0--0--0--5-6-7-5-6-7--0--0--0--0--0--5-6-7-5-6-7------|

eb|-----------------------------------------------------------|
Bb|-----------------------------------------------------------|
Gb|-------------------------9---9---9---9---9---9---9---9-----|
Db|-----------------------------------------------------------|
Ab|--2--2--2--2--2--2--2--2-7-2-7-2-7-2-7-2-7-2-7-2-7-2-7-----|
Eb|--0--0--0--0--0--0--0--0---0---0---0---0---0---0---0-------|


   (shut your mouth, can't you see that I'm ignoring you?...)
eb|----0----------0---------------------0------0------------|
Bb|----0----------2----------2----------2----0---0----------|
Gb|----1----------2----------2----------2-------------------| x2
Db|----2----------2----------4----------2-------------------|
Ab|----2--------0-0----------4--------0-0-------------------|
Eb|--0-0-------------------2-2------------------------------|

   (you've got to put me out...)
eb|-----------------------------------------------------------------------------------|
Bb|-----------------------------------------------------------------------------------|
Gb|---9----4----9----4----9--4--9-------9----4----9----4---x-x-x-x---x--x-x-x-x-x-x---|
Db|--------------------------------------------------------x-x-x-x---x--x-x-x-x-x-x---|
Ab|---7----2----7----2----7--2--7-------7----2----7----2---x-x-x-x---x--x-x-x-x-x-x---|
Eb|--------------------------------------------------------x-x-x-x---x--x-x-x-x-x-x---|
  |                                                                                   |
  |                                                                                   |
eb|-----------------------------------------------------------------------------------|
Bb|-----------------------------------------------------------------------------------|
Gb|-------------------------------------------------------x-x-x-x---x--x-x-x-x-x-x----|
Db|-------------------------------------------------------x-x-x-x---x--x-x-x-x-x-x----|
Ab|--5--5-5-----7--7-7--2--2----7--7-7--5--5-5--7--7-7----x-x-x-x---x--x-x-x-x-x-x----|
Eb|--3--3-3-----5--5-5--0--0----5--5-5--3--3-3--5--5-5----x-x-x-x---x--x-x-x-x-x-x----|


   (you're wearing on my patience...)
eb|---------------------------------------------------------------|
Bb|---------------------------------------------------------------|
Gb|---9----4----9----4----9--4--9-------9----4----9----4---9------|
Db|---------------------------------------------------------------|
Ab|---7----2----7----2----7--2--7-------7----2----7----2---7------|
Eb|---------------------------------------------------------------|
  |                                                               |
  |                                                               |
eb|---------------------------------------------------------------|
Bb|---------------------------------------------------------------|
Gb|---------------------------------------------------------------|
Db|-------------------------------------------------------2-------|
Ab|--5--5-5-----7--7-7--2--2----7--7-7--5--5-5--7--7-7----2-------|
Eb|--3--3-3-----5--5-5--0--0----5--5-5--3--3-3--5--5-5----0-------|


   (cause I'm not alone...)
eb|---------0-------------0----0---------------|
Bb|---------0-------------0----2--------4------|
Gb|--6-6-6--6----4-4-4-4--4----2--------4------|
Db|--6-6-6--6----4-4-4-4--4----2--------4------|
Ab|--4-4-4--4----2-2-2-2--2----0--------2------|
Eb|--------------------------------------------|


   Chorus: (I've got conversation...)
eb|-----------------3--3-3--3-3-3--2---2---3-2---2-------------------3--3-3--3-3-3--2---2---3-2---2----0-------|
Bb|--1--1-1--1-1-1--3--3-3--3-3-3--3-3---3-----3------1--1-1--1-1-1--3--3-3--3-3-3--3-3---3-----3------2-------|
Gb|--0--0-0--0-0-0--0--0-0--0-0-0--2------------------0--0-0--0-0-0--0--0-0--0-0-0--2------------------2-------|
Db|--2--2-2--2-2-2--0--0-0--0-0-0--0------------------2--2-2--2-2-2--0--0-0--0-0-0--0------------------2-------|
Ab|--3--3-3--3-3-3--2--2-2--2-2-2---------------------3--3-3--3-3-3--2--2-2--2-2-2---------------------0-------|
Eb|-----------------3--3-3--3-3-3------------------------------------3--3-3--3-3-3-----------------------------|

   (all of the good boys and girls in the world do the channel bop)
eb|----3------3------2------0------3-3----3-3-------|
Bb|------3------3------3------0----3-3----3-3-------|
Gb|-------------------------------------------------| x2
Db|----------------0--------------------------------|
Ab|--3--------------------0------3------------------|
Eb|---------3---------------------------3-----------|

eb|----3------3------2------0----0--------------------------------|
Bb|------3------3------3------0--0--------------------------------|
Gb|------------------------------1----9-9-9-9-9-9-9-9-9-9-9-9-----|
Db|----------------0-------------2----9-9-9-9-9-9-9-9-9-9-9-9-----|
Ab|--3--------------------0------2----7-7-7-7-7-7-7-7-7-7-7-7-----|
Eb|---------3--------------------0--------------------------------|

   (Late at night I lock myself...)
eb|----0----------0---------------------0------0------------|
Bb|----0----------2----------2----------2----0---0----------|
Gb|----1----------2----------2----------2-------------------| x2
Db|----2----------2----------4----------2-------------------|
Ab|----2--------0-0----------4--------0-0-------------------|
Eb|--0-0-------------------2-2------------------------------|


   (So when I choke on...)
eb|----------------------------------------------------------------------------|
Bb|----------------------------------------------------------------------------|
Gb|---9----4----9----4----9--4--9-------9----4----9----4---x-x-x-x---x-x-x-x---|
Db|--------------------------------------------------------x-x-x-x---x-x-x-x---|
Ab|---7----2----7----2----7--2--7-------7----2----7----2---x-x-x-x---x-x-x-x---|
Eb|--------------------------------------------------------x-x-x-x---x-x-x-x---|
  |                                                                            |
  |                                                                            |
eb|----------------------------------------------------------------------------|
Bb|----------------------------------------------------------------------------|
Gb|-------------------------------------------------------x-x-x-x---x-x-x-x----|
Db|-------------------------------------------------------x-x-x-x---x-x-x-x----|
Ab|--5--5-5-----7--7-7--2--2----7--7-7--5--5-5--7--7-7----x-x-x-x---x-x-x-x----|
Eb|--3--3-3-----5--5-5--0--0----5--5-5--3--3-3--5--5-5----x-x-x-x---x-x-x-x----|


   (shit out of things...)
eb|---------------------------------------------------------------|
Bb|---------------------------------------------------------------|
Gb|---9----4----9----4----9--4--9-------9----4----9----4---9------|
Db|---------------------------------------------------------------|
Ab|---7----2----7----2----7--2--7-------7----2----7----2---7------|
Eb|---------------------------------------------------------------|
  |                                                               |
  |                                                               |
eb|---------------------------------------------------------------|
Bb|---------------------------------------------------------------|
Gb|---------------------------------------------------------------|
Db|-------------------------------------------------------2-------|
Ab|--5--5-5-----7--7-7--2--2----7--7-7--5--5-5--7--7-7----2-------|
Eb|--3--3-3-----5--5-5--0--0----5--5-5--3--3-3--5--5-5----0-------|


   (au revoir, closing down...)
eb|---------0-------------0----0--0--0--0----------|
Bb|---------0-------------0----2--2--2--2--4--4----|
Gb|--6-6-6--6----4-4-4-4--4----2--2--2--2--4--4----|
Db|--6-6-6--6----4-4-4-4--4----2--2--2--2--4--4----|
Ab|--4-4-4--4----2-2-2-2--2----0--0--0--0--2--2----|
Eb|------------------------------------------------|


   Chorus: (I've got conversation...)
eb|-----------------3--3-3--3-3-3--2---2---3-2---2-------------------3--3-3--3-3-3--2---2---3-2---2----0-------|
Bb|--1--1-1--1-1-1--3--3-3--3-3-3--3-3---3-----3------1--1-1--1-1-1--3--3-3--3-3-3--3-3---3-----3------2-------|
Gb|--0--0-0--0-0-0--0--0-0--0-0-0--2------------------0--0-0--0-0-0--0--0-0--0-0-0--2------------------2-------|
Db|--2--2-2--2-2-2--0--0-0--0-0-0--0------------------2--2-2--2-2-2--0--0-0--0-0-0--0------------------2-------|
Ab|--3--3-3--3-3-3--2--2-2--2-2-2---------------------3--3-3--3-3-3--2--2-2--2-2-2---------------------0-------|
Eb|-----------------3--3-3--3-3-3------------------------------------3--3-3--3-3-3-----------------------------|


   (all of the good boys and girls in the world do the channel bop)
eb|----3------3------2------0------3-3----3-3-------|
Bb|------3------3------3------0----3-3----3-3-------|
Gb|-------------------------------------------------| x2
Db|----------------0--------------------------------|
Ab|--3--------------------0------3------------------|
Eb|---------3---------------------------3-----------|

eb|----3------3------2------0----0----------------------------------------------------------------------------|
Bb|------3------3------3------0--0----------------------------------------------------------------------------|
Gb|------------------------------1----------------------------------------------------------------------------|
Db|----------------0-------------2----------------------------------------------------------------------------|
Ab|--3--------------------0------2-------2-2-2-2--2-2-2-2--2-2-2-2--2-2-2-2--2-2-2-2--2-2-2-2--2-2-2-2--2-2---|
Eb|---------3--------------------0-------0-0-0-0--0-0-0-0--0-0-0-0--0-0-0-0--0-0-0-0--0-0-0-0--0-0-0-0--0-0---|

eb|-------------------------------------------------------|
Bb|-------------------------------------------------------|
Gb|-------------------------------------------------------|
Db|-----------------------------------------------------6-|
Ab|--2----------------6----------------8----------------4-|
Eb|--0----------------4----------------6------------------|


eb|-------------------------------------------------------|
Bb|-------------------------------------------------------|
Gb|----------------------4-4---------------------4-4------| x2
Db|--------2--------2----2-2-------2--------2----2-2------|
Ab|--4--------4----------------4-------4------------------|
Eb|----3-0------3-0--------------3-0-----3-0--------------|


eb|--------------------------------------------------------------------------------------------------|
Bb|--------------------------------------------------------------------------------------------------|

x2
Db|--2-2----4-4-4----2-2----4-4-4----2-2--------------------5-5-5-----------5-5-5-----------4-4-4----|
Ab|---------2-2-2-----------2-2-2-----------4-4-4----6-6----3-3-3----6-6----3-3-3----6-6----2-2-2----|
Eb|-----------------------------------------2-2-2----4-4-------------4-4-------------4-4-------------|


eb|-------------------------------------------------------|
Bb|-------------------------------------------------------|
Gb|----------------------4-4---------------------4-4------| x2
Db|--------2--------2----2-2-------2--------2----2-2------|
Ab|--4--------4----------------4-------4------------------|
Eb|----3-0------3-0--------------3-0-----3-0--------------|


   w/ double time feel (5:03)
eb|-------------------------------------------------------|
Bb|-------------------------------------------------------|
Gb|----------------------4-4---------------------4-4------| x2
Db|--------2--------2----2-2-------2--------2----2-2------|
Ab|--4--------4----------------4-------4------------------|
Eb|----3-0------3-0--------------3-0-----3-0--------------|


eb|------------------------------------------------------------------------------------|
Bb|------------------------------------------------------------------------------------|
Gb|------------------------------------------------------------------------------------| x2
Db|--2-0---------------5-2--2-0---------------5-2--0------------5-2--0-----------------|
Ab|-------2-1--2-0---------------2-1--2-0------------2--1-0------------2--1-0----------|
Eb|----------------3-0--------------------3-0---------------3-0----------------3-0-----|


eb|-----------------------------------------|
Bb|-----------------------------------------|
Gb|-----------------------------------------| x4
Db|--0------------0-------------5--6--------|
Ab|----2-1-0---------2-1-0------3--4--------|
Eb|----------3-0-----------3-0--------------|


  w/ swing feel (cold patootie tango...)
eb|-----------------------------------------|
Bb|-----------------------------------------|
Gb|-----------------------------------------| x4
Db|--0------------0-------------5--6--------|
Ab|----2-1-0---------2-1-0------3--4--------|
Eb|----------3-0-----------3-0--------------|


eb|---------------------------------------------------------------------------------------------------------------------|
Bb|---------------------------------------------------------------------------------------------------------------------|
Gb|---------------------------------------------------------------------------------------------------------------------|
Db|-9-9--9-9-9-9-9-9-9-9-9-9-9-9-9-9------------------------------------------------------------------------------------|
Ab|-7-7--7-7-7-7-7-7-7-7-7-7-7-7-7-7--7-8-9-7-8-9-2--2-2-2-2-2-2-2-2-2-2-2-2--7-8-9-7-8-9-2--2-2-2-2-2-2-2-2-2-2-2-2----|
Eb|-----------------------------------5-6-7-5-6-7-0--0-0-0-0-0-0-0-0-0-0-0-0--5-6-7-5-6-7-0--0-0-0-0-0-0-0-0-0-0-0-0----|


eb|-----------------------------------------------------------------------|
Bb|-----------------------------------------------------------------------|
Gb|------------------------------------------9-9-9-9-9-9-9-9-9-9-9-9------|
Db|------------------------------------------9-9-9-9-9-9-9-9-9-9-9-9------|
Ab|--7-8-9-7-8-9-2--2-2-2-2-2-2-2-2-2-2-2-2--7-7-7-7-7-7-7-7-7-7-7-7------|
Eb|--5-6-7-5-6-7-0--0-0-0-0-0-0-0-0-0-0-0-0-------------------------------|


   (cause I'm not alone, by myself...)
eb|---------0-------------0----0--0--0--0----------|
Bb|---------0-------------0----2--2--2--2--4--4----|
Gb|--6-6-6--6----4-4-4-4--4----2--2--2--2--4--4----|
Db|--6-6-6--6----4-4-4-4--4----2--2--2--2--4--4----|
Ab|--4-4-4--4----2-2-2-2--2----0--0--0--0--2--2----|
Eb|------------------------------------------------|


   Chorus: (I've got conversation...)
eb|-----------------3--3-3--3-3-3--2---2---3-2---2-------------------3--3-3--3-3-3--2---2---3-2---2----0-------|
Bb|--1--1-1--1-1-1--3--3-3--3-3-3--3-3---3-----3------1--1-1--1-1-1--3--3-3--3-3-3--3-3---3-----3------2-------|
Gb|--0--0-0--0-0-0--0--0-0--0-0-0--2------------------0--0-0--0-0-0--0--0-0--0-0-0--2------------------2-------|
Db|--2--2-2--2-2-2--0--0-0--0-0-0--0------------------2--2-2--2-2-2--0--0-0--0-0-0--0------------------2-------|
Ab|--3--3-3--3-3-3--2--2-2--2-2-2---------------------3--3-3--3-3-3--2--2-2--2-2-2---------------------0-------|
Eb|-----------------3--3-3--3-3-3------------------------------------3--3-3--3-3-3-----------------------------|


   (all of the good boys and girls in the world do the channel bop)
eb|----3------3------2------0------3-3----3-3-------|
Bb|------3------3------3------0----3-3----3-3-------|
Gb|-------------------------------------------------| x6
Db|----------------0--------------------------------|
Ab|--3--------------------0------3------------------|
Eb|---------3---------------------------3-----------|


eb|----3------3------2------0--------|
Bb|------3------3------3------0------|
Gb|----------------------------------|
Db|----------------0-----------------|
Ab|--3--------------------0----------|
Eb|---------3------------------------|
comments
We did not receive enough feedback on this tab! Please rate:
print report bad tab
1 2 3 4 5
I want to post or [tab]
guest
You may want to rate the tab now too:
select rating
Please do not post tabs as comments. Select "correction" instead!