Oops, an error
Loading. Please wait.

Everlone Tab

ver1
ver1

Whole song

Interactive

More versions @911Tabs.com
1,797 views 3 this week
no commentswrite comment
1 2 3 4 5
not so good
x 2
Autoscroll
+/-
esc
set tempo
stop
Contributor
Hey! There's an official Ultimate Guitar app which is ideal
for learning songs when you're away from computer. Get the app
WARNING: You are trying to view
                                    content from Ultimate-Guitar.com
                                    in an unauthorized application,
                                    which is prohibited.

                                    Please use an official Ultimate
                                    Guitar Tabs application for iPhone,
                                    iPad or Android to access legitimate
                                    chords, guitar, bass, and drum tabs
                                    from Ultimate-Guitar.com database.

                                    Type "ultimate guitar tabs" in Apple
                                    App Store's or Android Market's
                                    search to find the application.
Band: The Wildhearts	
Song: Everlone
Album: Earth Vs. The Wildhearts
Tuning: Eb


eb|-----------------------------------------------|
Bb|-----------------------------------------------|
Gb|--4---------6-----------------9--8--4----------| x4
Db|--4---------6------------9---------------------|
Ab|--2--4-4-4--4--6--2-2-2--7----7--6--2----------|
Eb|--2--2-2-2--4--4--0-0-0------------------------|



eb|-----------------------------------------------|
Bb|-----------------------------------------------|
Gb|-----------------------------------------------|
Db|--------------------------------x//------------|
Ab|--9---4-6-7----4-6-9----4-6-7---x//------------|
Eb|--7---2-4-5----2-4-7----2-4-5---x//------------|



eb|------------------------------------------------------------------------------|
Bb|------------------------------------------------------------------------------|
Gb|------------------------------------------------------------------------------|
Db|------------------------------------------------------------------------------|
Ab|--9-9-9--4-5-7-7-7--4-5-9-9-9--4-5-7-7-7--4-5-9-9-9--4-5-7-7-7--4-5-9-9-9-----|
Eb|--7-7-7--2-4-5-5-5--2-4-7-7-7--2-4-5-5-5--2-4-7-7-7--2-4-5-5-5--2-4-7-7-7-----|



eb|-----------------------|
Bb|-----------------------|
Gb|-----------------------|
Db|-----------------------|
Ab|--4-5-7--4-5-9--4-6-4--|
Eb|--2-4-5--2-4-7--2-4-2--|



eb|------------------------------------------------------------------------------------------------------|
Bb|------------------------------------------------------------------------------------------------------|
Gb|--2--x-x-x--4----x-x-x--4----x-x-x--4---4---4----------------------3------------------------3---------|
Db|--2--x-x-x--2-2--x-x-x--2-2--x-x-x--2-2-2-2-2----------------------4--4-4-4-----------------4--4-4-4--|
Ab|--0--x-x-x----0--x-x-x----0--x-x-x----0---0----4--4-4--4-4-4--4-4--4--2-2-2--4--4-4--4-4-4--4--2-2-2--|
Eb|-----------------------------------------------2--2-2--2-2-2--2-2--2---------2--2-2--2-2-2--2---------|



eb|----------------------------------------------------------------------------------------------------|
Bb|----------------------------------------------------------------------------------------------------|
Gb|--2--x-x-x--4----x-x-x--4----x-x-x--4---4---4----------------------3------------------------3-------|
Db|--2--x-x-x--2-2--x-x-x--2-2--x-x-x--2-2-2-2-2----------------------4--4-4-4-----------------4--x//--|
Ab|--0--x-x-x----0--x-x-x----0--x-x-x----0---0----4--4-4--4-4-4--4-4--4--2-2-2--4--4-4--4-4-4--4--x//--|
Eb|-----------------------------------------------2--2-2--2-2-2--2-2--2---------2--2-2--2-2-2--2--x//--|


eb|---------------4---7-------------4-----------------------------------------------------|
Bb|-------5---7------------------7-------5-------7----------------------------------------|
Gb|---6---------------------------------------------4---3~~-------------------------------|
Db|---------------------------------------------------------------------------------------|
Ab|---------------------------------------------------------------------------------------|
Eb|---------------------------------------------------------------------------------------|
  |								                            
eb|---------------------------------------------------------------------------------------|
Bb|---------------------------------------------------------------------------------------|
Gb|---------------------------------------------------------------------------------------|
Db|--6--6-6-6-6-6----------------9--9-9-9-9-9---------------------------------------------|
Ab|--4--4-4-4-4-4--7--7-7-7-7-7--7--7-7-7-7-7--9--9-9-9-9-9--4--4-4-4-4-4--4-4-4-4-4-4----|
Eb|----------------5--5-5-5-5-5----------------7--7-7-7-7-7--2--2-2-2-2-2--2-2-2-2-2-2----|


eb|----------------------------------|
Bb|----------------------------------|
Gb|----------------------------------|
Db|----------------------------------|
Ab|--6----7----2----2-2-2-2-2-2------|
Eb|--4----5----0----0-0-0-0-0-0------|

eb|--------------------------------------------------------------|
Bb|--------------------------------------------------------------|
Gb|-------------------------------------2---------4--------------|
Db|--4--4-4-4-4-4---4--4-4-4-4-4--4--2--2----2----4----4----2----|
Ab|--2--2-2-2-2-2---2--2-2-2-2-2--4--2--0----2----2----4----2----|
Eb|-------------------------------2--0-------0---------2----0----|


eb|----------------------------------------------------------------------------|
Bb|----------------------------------------------------------------------------|
Gb|-------------------------------------2---------4----------------------------|
Db|--4--4-4-4-4-4---4--4-4-4-4-4--4--2--2----2----4----4-----------------------|
Ab|--2--2-2-2-2-2---2--2-2-2-2-2--4--2--0----2----2----4-------------------2---|
Eb|-------------------------------2--0-------0---------2---2-4-5--4-2-0--5-----|


eb|-----------------------------------------------|
Bb|-----------------------------------------------|
Gb|-----------------------------------------------|
Db|--------------------------------x//------------|
Ab|--9---4-6-7----4-6-9----4-6-7---x//------------|
Eb|--7---2-4-5----2-4-7----2-4-5---x//------------|


eb|---------------------------------------------------------|
Bb|---------------------------------------------------------|
Gb|---------------------------------------------------------|
Db|---------------------------------------------------------|
Ab|--9-9-9--4-5-7-7-7--4-5-9-9-9--4-5-7---4-5-9--4-5-4------|
Eb|--7-7-7--2-4-5-5-5--2-4-7-7-7--2-4-5---2-4-7--2-4-2------|


eb|------------------------------------------------------------------------------------------------------|
Bb|------------------------------------------------------------------------------------------------------|
Gb|--2--x-x-x--4----x-x-x--4----x-x-x--4---4---4----------------------3------------------------3---------|
Db|--2--x-x-x--2-2--x-x-x--2-2--x-x-x--2-2-2-2-2----------------------4--4-4-4-----------------4--4-4-4--|
Ab|--0--x-x-x----0--x-x-x----0--x-x-x----0---0----4--4-4--4-4-4--4-4--4--2-2-2--4--4-4--4-4-4--4--2-2-2--|
Eb|-----------------------------------------------2--2-2--2-2-2--2-2--2---------2--2-2--2-2-2--2---------|



eb|----------------------------------------------------------------------------------------------------|
Bb|----------------------------------------------------------------------------------------------------|
Gb|--2--x-x-x--4----x-x-x--4----x-x-x--4---4---4----------------------3------------------------3-------|
Db|--2--x-x-x--2-2--x-x-x--2-2--x-x-x--2-2-2-2-2----------------------4--4-4-4-----------------4--x//--|
Ab|--0--x-x-x----0--x-x-x----0--x-x-x----0---0----4--4-4--4-4-4--4-4--4--2-2-2--4--4-4--4-4-4--4--x//--|
Eb|-----------------------------------------------2--2-2--2-2-2--2-2--2---------2--2-2--2-2-2--2--x//--|



eb|---------------4---7-------------4-----------------------------------------------------|
Bb|-------5---7------------------7-------5-------7----------------------------------------|
Gb|---6---------------------------------------------4---3~~-------------------------------|
Db|---------------------------------------------------------------------------------------|
Ab|---------------------------------------------------------------------------------------|
Eb|---------------------------------------------------------------------------------------|
  |											  | x2  
eb|---------------------------------------------------------------------------------------|
Bb|---------------------------------------------------------------------------------------|
Gb|---------------------------------------------------------------------------------------|
Db|--6--6-6-6-6-6----------------9--9-9-9-9-9---------------------------------------------|
Ab|--4--4-4-4-4-4--7--7-7-7-7-7--7--7-7-7-7-7--9--9-9-9-9-9--4--4-4-4-4-4--4-4-4-4-4-4----|
Eb|----------------5--5-5-5-5-5----------------7--7-7-7-7-7--2--2-2-2-2-2--2-2-2-2-2-2----|


eb|----------------------------------|
Bb|----------------------------------|
Gb|----------------------------------|
Db|----------------------------------|
Ab|--6----7----2----2-2-2-2-2-2------|
Eb|--4----5----0----0-0-0-0-0-0------|

eb|--------------------------------------------------------------|
Bb|--------------------------------------------------------------|
Gb|-------------------------------------2---------4--------------|
Db|--4--4-4-4-4-4---4--4-4-4-4-4--4--2--2----2----4----4----2----|
Ab|--2--2-2-2-2-2---2--2-2-2-2-2--4--2--0----2----2----4----2----|
Eb|-------------------------------2--0-------0---------2----0----|


eb|-----------------------------------------------------------------------------------------------------|
Bb|-----------------------------------------------------------------------------------------------------|
Gb|-------------------------------------2---------4------------------------4--4--4-4-4--4-4-4--4-4-4----|
Db|--4--4-4-4-4-4---4--4-4-4-4-4--4--2--2----2----4----4------------------------------------------------|
Ab|--2--2-2-2-2-2---2--2-2-2-2-2--4--2--0----2----2----4-------------------2--2--2-2-2--2-2-2--2-2-2----|
Eb|-------------------------------2--0-------0---------2---2-4-5--4-2-0--5------------------------------|



eb|----------------------------------|
Bb|----------------------------------|
Gb|----------------------------------|
Db|--4-4-4-4-4-4-4--4-4-4--4-4-4-----| x7
Ab|--2-2-2-2-2-2-2--2-2-2--2-2-2-----|
Eb|----------------------------------|


eb|------------------|
Bb|------------------|
Gb|------------------|
Db|---------4--------|
Ab|--2-2-2--4--------|
Eb|--0-0-0--2--------|


eb|----------------------------------------------------------|
Bb|----------------------------------------------------------|
Gb|----------------------------------------------------------|
Db|------------------------------------------------------4---| x2
Ab|--2-2-2--4--4-4-4--4--4--4-4--4-4-4--2--2-2-2--2-2-2--2---|
Eb|--0-0-0--2--2-2-2--2--2--2-2--2-2-2--0--0-0-0--0-0-0------|


eb|------------------------------------------------------------------|
Bb|------------------------------------------------------------------|
Gb|--4---------------------------------------------------------------|
Db|--4--4------------------------------------------------------------|
Ab|--2--4--2--2-2--2-2-2--4--4-4--4-4-4---2--2-2--2-2-2--6--2-2--4---|
Eb|-----2--0--0-0--0-0-0--2--2-2--2-2-2---0--0-0--0-0-0--4--0-0--2---|


eb|------------------------------------------------------------------------|
Bb|------------------------------------------------------------------------|
Gb|------------------------------------------------------------------------|
Db|--------------------------------7-7-7---------9-9-9----------9-9-9-9----|
Ab|--2--2-2--2-2-2--4--4-4--4-4-4--5-5-5--7-7-7--7-7-7---9-9-9--7-7-7-7----|
Eb|--0--0-0--0-0-0--2--2-2--2-2-2---------5-5-5----------7-7-7-------------|


eb|--------------------------------------------------------------|
Bb|--------------------------------------------------------------|
Gb|-------------------------------------2---------4--------------|
Db|--4--4-4-4-4-4---4--4-4-4-4-4--4--2--2----2----4----4----2----|
Ab|--2--2-2-2-2-2---2--2-2-2-2-2--4--2--0----2----2----4----2----|
Eb|-------------------------------2--0-------0---------2----0----|


eb|--------------------------------------------------------------------------------------------------|
Bb|--------------------------------------------------------------------------------------------------|
Gb|-------------------------------------2---------4--------------------------------------------------|
Db|--4--4-4-4-4-4---4--4-4-4-4-4--4--2--2----2----4----4--4-4--4-4-4--4--4-4--4-4-4--4--4-4--4-4-4---|
Ab|--2--2-2-2-2-2---2--2-2-2-2-2--4--2--0----2----2----4--4-4--4-4-4--4--4-4--4-4-4--4--4-4--4-4-4---|
Eb|-------------------------------2--0-------0---------2--2-2--2-2-2--2--2-2--2-2-2--2--2-2--2-2-2---|


eb|---------------------------|
Bb|---------------------------|
Gb|---------------------------|
Db|---------------------------|
Ab|---------------------------|
Eb|--2-4-5--------4-2-0--5----|


eb|------------------------------------------------------------------------------|
Bb|------------------------------------------------------------------------------|
Gb|--------------------------------------7-7-7---------9-9-9-----------9-9-9-9---|
Db|--9-9-9-9--9-9-9-9--9-9-9-9--9-9-9-9--7-7-7--7-7-7--9-9-9--9-9-9----9-9-9-9---|x2
Ab|--9-9-9-9--9-9-9-9--9-9-9-9--9-9-9-9--5-5-5--7-7-7--7-7-7--9-9-9----7-7-7-7---|
Eb|--7-7-7-7--7-7-7-7--7-7-7-7--7-7-7-7---------5-5-5---------7-7-7--------------|


eb|----------------------------------------------------------------------------|
Bb|----------------------------------------------------------------------------|
Gb|--------------------------------------7-7-7---------9-9-9-----------9--9----|
Db|--9-9-9-9--9-9-9-9--9-9-9-9--9-9-9-9--7-7-7--7-7-7--9-9-9--9-9-9----9--9----|
Ab|--9-9-9-9--9-9-9-9--9-9-9-9--9-9-9-9--5-5-5--7-7-7--7-7-7--9-9-9----7--7----|
Eb|--7-7-7-7--7-7-7-7--7-7-7-7--7-7-7-7---------5-5-5---------7-7-7------------|


eb|-----------------------------------------------------|
Bb|-----7-7-7-7--7-3-3-3--------------------------------|
Gb|-----4-4-4-4--4\0-0-0--------2-2-2-2--4----4---------|
Db|--2--------------------------0-0-0-0--5------5-------|x4
Ab|--2--------------------------------------------3-2---|
Eb|--0--------------------0-2-3-------------------------|


eb|-------------------------------------------------------------------------------------0-------0------0------|
Bb|--7/9--9-9--9/10\9--9--9-9--7/9--9-9--9/10\9--9--9-9--7/9--9-9--9/10\9--9--9/10--------3-------3------3----|
Gb|-----------------------------------------------------------------------------------2--------2------2-------|x2
Db|--4/6--6-6--6/7-\6--6--6-6--4/6--6-6--6/7-\6--6--6-6--4/6--6-6--6/7-\6--6--6/7---0--------0------0---------|
Ab|-----------------------------------------------------------------------------------------------------------|
Eb|-----------------------------------------------------------------------------------------------------------|


eb|-------------------------------------------------------|
Bb|-------------------------------------------------------|
Gb|-------------------------------------------------------|x2
Db|-------------------------------------------------------|
Ab|----------2------------2------------2----------2-------|
Eb|--3-2-3-5---0--3-2-3-5---0--3-2-3-5---0--2-3-5---0-----|


eb|----------------------------------------------------------------------------------------------------------------|
Bb|----------------------------------------------------------------------------------------------------------------|
Gb|----------------------------------------------------------------------------------------------------------------|
Db|----------------------------------------------------------------------------------------------------------------|
Ab|----------2------------2------------2----------2------------2------------2------------2----------2--------------|
Eb|--3-2-3-5---0--3-2-3-5---0--3-2-3-5---0--2-3-5---0--3-2-3-5---0--3-2-3-5---0--3-2-3-5---0--2-3-5---0------------|
  |                                                                                                                 
eb|----------------------------------------------------------------------------------------------------------------|
Bb|----------------------------------------------------------------------------------------------------------------|
Gb|----------------------------5-------------------------------------------------4-------------5-5--5-5------------|
Db|--2-------------------------5------------5-5-5-5-5--7-------------------------4-------------5-5--5-5------------|
Ab|--2-------------------------3------------5-5-5-5-5--7-------------------------2-------------3-3--3-3------------|
Eb|--0-------------------------3------------3-3-3-3-3--5-----------------------------------------------------------|


eb|----------------------------------------------------------------------------------------------------------------------|
Bb|----------------------------------------------------------------------------------------------------------------------|
Gb|----------------------------------------------------------------------------------------------------------------------|
Db|----------7-9------------7-9------------7-9---------7-9------------7-9------------7-9------------7-9---------7-9------|
Ab|--10-9-10-----7--10-9-10-----7--10-9-10-----7--9-10-----7--10-9-10-----7--10-9-10-----7--10-9-10-----7--9-10-----7----|
Eb|----------------------------------------------------------------------------------------------------------------------|
  |                                                                                                                        
eb|----------------------------------------------------------------------------------------------------------------------|
Bb|----------------------------------------------------------------------------------------------------------------------|
Gb|--------------------------------5--------------------------------------------------------4--------------5-5--5-5------|
Db|--2-----------------------------5-----------5-5-5-5-5--7---------------------------------4--------------5-5--5-5------|
Ab|--2-----------------------------3-----------5-5-5-5-5--7---------------------------------2--------------3-3--3-3------|
Eb|--0-----------------------------3-----------3-3-3-3-3--5--------------------------------------------------------------|


eb|-----------------------------------------------------|
Bb|-----------------------------------------------------|
Gb|-----------------------------------------------------|x4
Db|-----------------------------------------------------|
Ab|----------2------------2----------2----------2-------|
Eb|--3-2-3-5---0--3-2-3-5---0--2-3-5---0--2-3-5---0-----|



Key:

/ = slide
\ = slide
x = mute strings
x// = pick slide
comments
We did not receive enough feedback on this tab! Please rate:
print report bad tab
1 2 3 4 5
I want to post or [tab]
guest
You may want to rate the tab now too:
select rating
Please do not post tabs as comments. Select "correction" instead!