Oops, an error
Loading. Please wait.

Soul Searching On The Planet Earth Tab

232 views 1 this week
no commentswrite comment
1 2 3 4 5
please rate
add to favorites launch autoscroll
font size
0
reset
Autoscroll
+/-
esc
set tempo
stop
Contributor
WARNING: You are trying to view
                                    content from Ultimate-Guitar.com
                                    in an unauthorized application,
                                    which is prohibited.

                                    Please use an official Ultimate
                                    Guitar Tabs application for iPhone,
                                    iPad or Android to access legitimate
                                    chords, guitar, bass, and drum tabs
                                    from Ultimate-Guitar.com database.

                                    Type "ultimate guitar tabs" in Apple
                                    App Store's or Android Market's
                                    search to find the application.
Band: The Wildhearts
Song: Soul Searching on the Planet Earth
Album: Fishing For Luckies
Tuning: Eb


eb|------------------------------------------------------|
Bb|------------------------------------------------------|
Gb|------------------------------------------------------|
Db|-------9---------9---------9---------9-------9--------|
Ab|--6-7--7----6-7--7----6-7--7----6-7--7--6-7--7--------|
Eb|--4-5-------4-5-------4-5-------4-5-----4-5-----------|


eb|-------------------------------------------------|
Bb|-------------------------------------------------|
Gb|-------9---9--9--9--8--8--8--8--7--7--7--7-------|
Db|-------------------------------------------------|
Ab|--6-7--7---7--7--7--6--6--6--6--5--5--5--5-------|
Eb|--4-5--------------------------------------------|
  |                                                 | x4
  |                                                 |
eb|--------------------------------10-10-10-10------|
Bb|--------------------12-12-12-12------------------|
Gb|-------9---9--9--9-------------------------------|
Db|-------------------------------------------------|
Ab|--6-7--------------------------------------------|
Eb|--4-5--------------------------------------------|


   (headfucked and hate filled)
eb|---------------------------------------------------------------------------- |  \
Bb|---------------------------------------------------------------------------- |   \
Gb|---------------------------------------------------------------------|   --- |
Db|-------9--9-9-9-9-9-9-9-9-9-9-9-------9--9-9-9-9-9-9-9-9-9-9-9-------|   --- |
Ab|--6-7--7--7-7-7-7-7-7-7-7-7-7-7--6-7--7--7-7-7-7-7-7-7-7-7-7-7-------|   --- |
Eb|--4-5----------------------------4-5---------------------------------|   --- | x2
									     |
   (where can I go for a conversation?)					     |
eb|---------------------------------------------------------------|         -- |
Bb|--------------------------------------------------------------------------- |         /
Gb|--------------------------------------------------------------------------- |        /
Db|-----------------------------------9--9-9-9-9-9-9-9-9-9-9-9---------------- |
Ab|--6-7--9--9-9-9-9-9--7--7-7-7-7-7--7--7-7-7-7-7-7-7-7-7-7-7---------------- |
Eb|--4-5--7--7-7-7-7-7--5--5-5-5-5-5------------------------------------------ |


   (so I try and I try and I see no reply)
eb|-----------------------------------------------------------------------------------------------------------|
Bb|-----------------------------------------------------------------------------------------------------------|
Gb|-----------------------------------------------------------------------------------------------------------|
Db|--4--4-4--4--4---4-4--4--4----------2-2-2-2--2--2-2-------2-2-2-2--2--2-2--------4-4-4-4--4-4-4--5----5-7--|
Ab|--2--2-2--2--2---2-2--2--2----2--2--0-0-0-0--0--0-0--2-2--0-0-0-0--0--0-0--2--2--2-2-2-2--2-2-2--3----3-5--|
Eb|------------------------------0--0-------------------0-0-------------------0--0----------------------------|


   (I need a different kind of love)
eb|--12-0-12-0-12-0--12-0--10-0-10-0-10-0-10-0--12-0-12-0-12-0--12-0--10-0-10-0-10-0-10-0--|
Bb|----------------------------------------------------------------------------------------|
Gb|----------------------------------------------------------------------------------------|
Db|----------------------------------------------------------------------------------------|
Ab|----------------------------------------------------------------------------------------|
Eb|----------------------------------------------------------------------------------------|
  |                                                                                        | x2
  |                                                                                        |
eb|----------------------------------------------------------------------------------------|
Bb|----------------------------------------------------------------------------------------|
Gb|----------------------------------------------------------------------------------------|
Db|--7--9-9-9-9-9-9-9------7----7-7-7-7-7-7------------------------------------------------|
Ab|--7--7-7-7-7-7-7-7------5----5-5-5-5-5-5-----7----7-7-7-7-7-7--9----9-9-9-9-9-9-9-------|
Eb|---------------------------------------------5----5-5-5-5-5-5--7----7-7-7-7-7-7-7-------|


   (Set to break at the pressure point)
eb|---------------------------------------------------------------------------- |  \
Bb|---------------------------------------------------------------------------- |   \
Gb|---------------------------------------------------------------------|   --- |
Db|-------9--9-9-9-9-9-9-9-9-9-9-9-------9--9-9-9-9-9-9-9-9-9-9-9-------|   --- |
Ab|--6-7--7--7-7-7-7-7-7-7-7-7-7-7--6-7--7--7-7-7-7-7-7-7-7-7-7-7-------|   --- |
Eb|--4-5----------------------------4-5---------------------------------|   --- | x2
									     |
   (where can I go for a class reunion?)				     |
eb|---------------------------------------------------------------|         -- |
Bb|--------------------------------------------------------------------------- |         /
Gb|--------------------------------------------------------------------------- |        /
Db|-----------------------------------9--9-9-9-9-9-9-9-9-9-9-9---------------- |
Ab|--6-7--9--9-9-9-9-9--7--7-7-7-7-7--7--7-7-7-7-7-7-7-7-7-7-7---------------- |
Eb|--4-5--7--7-7-7-7-7--5--5-5-5-5-5------------------------------------------ |


   (so I tried and I tried just to open me eyes)
eb|-----------------------------------------------------------------------------------------------------------|
Bb|-----------------------------------------------------------------------------------------------------------|
Gb|-----------------------------------------------------------------------------------------------------------|
Db|--4--4-4--4--4---4-4--4--4----------2-2-2-2--2--2-2-------2-2-2-2--2--2-2--------4-4-4-4--4-4-4--5----5-7--|
Ab|--2--2-2--2--2---2-2--2--2----2--2--0-0-0-0--0--0-0--2-2--0-0-0-0--0--0-0--2--2--2-2-2-2--2-2-2--3----3-5--|
Eb|------------------------------0--0-------------------0-0-------------------0--0----------------------------|


   (I need a different kind of love)
eb|--12-0-12-0-12-0--12-0--10-0-10-0-10-0-10-0--12-0-12-0-12-0--12-0--10-0-10-0-10-0-10-0--|
Bb|----------------------------------------------------------------------------------------|
Gb|----------------------------------------------------------------------------------------|
Db|----------------------------------------------------------------------------------------|
Ab|----------------------------------------------------------------------------------------|
Eb|----------------------------------------------------------------------------------------|
  |                                                                                        | x2
  |                                                                                        |
eb|----------------------------------------------------------------------------------------|
Bb|----------------------------------------------------------------------------------------|
Gb|----------------------------------------------------------------------------------------|
Db|--7--9-9-9-9-9-9-9------7----7-7-7-7-7-7------------------------------------------------|
Ab|--7--7-7-7-7-7-7-7------5----5-5-5-5-5-5-----7----7-7-7-7-7-7--9----9-9-9-9-9-9-9-------|
Eb|---------------------------------------------5----5-5-5-5-5-5--7----7-7-7-7-7-7-7-------|


eb|----------------------------------------------------------------------------------------|
Bb|----------------------------------------------------------------------------------------|
Gb|----------------------------------------------------------------------------------------|
Db|--5--5-5-5-5--5-5-5-5--5-5-5-7--9--9-9-9--9-9-9--9-9--5-7--9--9-9-9--9-9-9--9-9--5-7----|
Ab|--3--3-3-3-3--3-3-3-3--3-3-3-5--7--7-7-7--7-7-7--7-7--3-5--7--7-7-7--7-7-7--7-7--3-5----|
Eb|--3--3-3-3-3--3-3-3-3--3-3-3-5------------------------3-5------------------------3-5----|


eb|---------------------------------------------------------|
Bb|---------------------------------------------------------|
Gb|---------------------------------------------------------|
Db|--9--9-9-9--9-9-9--9-9--5-7--9--9-9-9--9-9-9--9-9--5-7---|
Ab|--7--7-7-7--7-7-7--7-7--3-5--7--7-7-7--7-7-7--7-7--3-5---|
Eb|------------------------3-5------------------------3-5---|


eb|------------------------------------|
Bb|------------------------------------|
Gb|--9--------7------------------------| x2
Db|--------------------7--------5------|
Ab|--7--------5------------------------|
Eb|--------------------5--------3------|


   (I've gotta different kind of empathy)
eb|-------------------------------------------------|
Bb|-------------------------------------------------|
Gb|-------9---9--9--9--8--8--8--8--7--7--7--7-------|
Db|-------------------------------------------------|
Ab|--6-7--7---7--7--7--6--6--6--6--5--5--5--5-------|
Eb|--4-5--------------------------------------------|
  |                                                 | x4
  |                                                 |
eb|--------------------------------10-10-10-10------|
Bb|--------------------12-12-12-12------------------|
Gb|-------9---9--9--9-------------------------------|
Db|-------------------------------------------------|
Ab|--6-7--------------------------------------------|
Eb|--4-5--------------------------------------------|


   (I gotta different kind of love)
eb|-------12-0-12-0-12-0--12-0--10-0-10-0-10-0-10-0--12-0-12-0-12-0--12-0--10-0-10-0-10-0-10-0--|
Bb|---------------------------------------------------------------------------------------------|
Gb|---------------------------------------------------------------------------------------------|
Db|---------------------------------------------------------------------------------------------|
Ab|--7-9----------------------------------------------------------------------------------------|
Eb|--5-7----------------------------------------------------------------------------------------|
  |                                                                                             |
  |                                                                                             |
eb|---------------------------------------------------------------------------------------------|
Bb|---------------------------------------------------------------------------------------------|
Gb|---------------------------------------------------------------------------------------------|
Db|-------7--9-9-9-9-9-9-9------7----7-7-7-7-7-7------------------------------------------------|
Ab|--7-9--7--7-7-7-7-7-7-7------5----5-5-5-5-5-5-----7----7-7-7-7-7-7--9----9-9-9-9-9-9-9-------|
Eb|--5-7---------------------------------------------5----5-5-5-5-5-5--7----7-7-7-7-7-7-7-------|

eb|--12-0-12-0-12-0--12-0--10-0-10-0-10-0-10-0--12-0-12-0-12-0--12-0--10-0-10-0-10-0-10-0--|
Bb|----------------------------------------------------------------------------------------|
Gb|----------------------------------------------------------------------------------------|
Db|----------------------------------------------------------------------------------------|
Ab|----------------------------------------------------------------------------------------|
Eb|----------------------------------------------------------------------------------------|
  |                                                                                        |  x3
  |                                                                                        |
eb|----------------------------------------------------------------------------------------|
Bb|----------------------------------------------------------------------------------------|
Gb|----------------------------------------------------------------------------------------|
Db|--7--9-9-9-9-9-9-9------7----7-7-7-7-7-7------------------------------------------------|
Ab|--7--7-7-7-7-7-7-7------5----5-5-5-5-5-5-----7----7-7-7-7-7-7--9----9-9-9-9-9-9-9-------|
Eb|---------------------------------------------5----5-5-5-5-5-5--7----7-7-7-7-7-7-7-------|

   (you gotta different kind of need to fix)
eb|--------0---------------------------------------------|
Bb|--------0---------------------------------------------|
Gb|--------0---------------------------------------------|
Db|--------9---------------------------------------------|
Ab|--6-7---7---------------------------------------------|
Eb|--4-5-------------------------------------------------|


eb|----------------------------------------|
Bb|----------------------------------------|
Gb|--11-----------------11-----------------|
Db|------12--9--11--12-----12-9-11-12------|  repeat till fade
Ab|----------------------------------------|
Eb|----------------------------------------|
comments
We did not receive enough feedback on this tab! Please rate:
print report bad tab
1 2 3 4 5
I want to post or [tab]
guest
You may want to rate the tab now too:
select rating
Please do not post tabs as comments. Select "correction" instead!