Oops, an error
Loading. Please wait.

Stormy In The North Tab

651 views 1 this week
no commentswrite comment
1 2 3 4 5
please rate
add to favorites launch autoscroll
font size
0
reset
Autoscroll
+/-
esc
set tempo
stop
Contributor
WARNING: You are trying to view
                                    content from Ultimate-Guitar.com
                                    in an unauthorized application,
                                    which is prohibited.

                                    Please use an official Ultimate
                                    Guitar Tabs application for iPhone,
                                    iPad or Android to access legitimate
                                    chords, guitar, bass, and drum tabs
                                    from Ultimate-Guitar.com database.

                                    Type "ultimate guitar tabs" in Apple
                                    App Store's or Android Market's
                                    search to find the application.
Band: The Wildhearts    
Song: Stormy in the north, Karma in the south
Album: Coupled with
Tuning: Eb

eb|--------------------------| x4
Bb|--------------------------|
Gb|---------------------2----|
Db|---5--5-----5--5--5--2----|
Ab|---3--3--0--3--3--3--0----|
Eb|--------------------------|


eb|--------------------------------------------------| x4
Bb|--------------------------------------------------|
Gb|--------------------------------------------------|
Db|--5--5-----5--5--5-----7--7--7--7--7--6--5--------|
Ab|--3--3--0--3--3--3--0--0--0--0--0--0--------------|
Eb|--------------------------------------------------|


eb|--------------------|
Bb|--------------------|
Gb|--------------------|
Db|--5--5-----5--5-----|
Ab|--3--3--0--3--3-----|
Eb|--------------------|



eb|--------5--5-----5----------5--5-----5------| x2
Bb|--------5--5-----5----------5--5-----5------|
Gb|--6--6--6--6--6--6----6--6--6--6--6--6------|
Db|--7--7--7--7--7--7----7--7--7--7--7--7------|
Ab|--7--7--------7-------7--7--------7---------|
Eb|--5--5--------5-------5--5--------5---------|



eb|--5----5----5--5--5--5----5----5----5--5--5----------5-----5-----5-----|
Bb|--5----5----5--5--5--5----3----3----3--3--3----------5-----5-----5-----|
Gb|--7----7----7--7--7--7----4----4----4--4--4----6--6--6-----6--6--6-----|
Db|--7----7----7--7--7--7----5----5----5--5--5----7--7--7-----7--7--7-----|
Ab|--5----5----5--5--5--5-------------------------7--7-----------7--------|
Eb|--------------------------3----3----3--3--3----5--5-----------5--------|


eb|----------------------------|
Bb|----------------------------|
Gb|--2-------------------------|
Db|--2--5--5-----5-----5--5----|
Ab|--0--3--3--0--3--0--3--3----|
Eb|----------------------------|


eb|--------5--5-----5----------5--5-----5------| x2
Bb|--------5--5-----5----------5--5-----5------|
Gb|--6--6--6--6--6--6----6--6--6--6--6--6------|
Db|--7--7--7--7--7--7----7--7--7--7--7--7------|
Ab|--7--7--------7-------7--7--------7---------|
Eb|--5--5--------5-------5--5--------5---------|



eb|--5----5----5--5--5--5----5----5----5--5--5----------5-----5-----5--------5----5-----5------|
Bb|--5----5----5--5--5--5----3----3----3--3--3----------5-----5-----5--------5----5-----5------|
Gb|--7----7----7--7--7--7----4----4----4--4--4----6--6--6-----6--6--6--6--6--6----6--6--6------|
Db|--7----7----7--7--7--7----5----5----5--5--5----7--7--7-----7--7--7--7--7--7----7--7--7------|
Ab|--5----5----5--5--5--5-------------------------7--7-----------7-----7--7----------7---------|
Eb|--------------------------3----3----3--3--3----5--5-----------5-----5--5----------5---------|



eb|---------------3----3-3--3--3--3----5--5--5--5--5--5--5--5--5--5--5--5---------| x3
Bb|--7--7--7-7-7--3----3-3--3--3--3----5--5--5--5--5--5--5--5--5--5--5--5---------|
Gb|--7--7--7-7-7--4----4-4--4--4--4----6--6--6--6--6--6--6--6--6--6--6--6---------|
Db|--7--7--7-7-7--5----5-5--5--5--5----7--7--7--7--7--7--7--7--7--7--7--7---------|
Ab|--5--5--5-5-5--5----5-5--5--5--5----7--7--7--7--7--7--7--7--7--7--7--7---------|
Eb|---------------3----3-3--3--3--3----5--5--5--5--5--5--5--5--5--5--5--5---------|



eb|----------------------------------------------------------------------------|
Bb|----------------------------------------------------------------------------|
Gb|----------------------------------------------------------------------------|
Db|--4----4--4----4--4--4----5----5--5----5--5--5----7----7--7----7--7--7------|
Ab|--4----4--4----4--4--4----5----5--5----5--5--5----7----7--7----7--7--7------|
Eb|--2----2--2----2--2--2----3----3--3----3--3--3----5----5--5----5--5--5------|



eb|--------------------------------------------------| x4
Bb|--------------------------------------------------|
Gb|--------------------------------------------------|
Db|--5--5-----5--5--5-----7--7--7--7--7--6--5--------|
Ab|--3--3--0--3--3--3--0--0--0--0--0--0--------------|
Eb|--------------------------------------------------|


eb|--------------------|
Bb|--------------------|
Gb|--------------------|
Db|--5--5-----5--5-----|
Ab|--3--3--0--3--3-----|
Eb|--------------------|


eb|--------5--5-----5----------5--5-----5------| x2
Bb|--------5--5-----5----------5--5-----5------|
Gb|--6--6--6--6--6--6----6--6--6--6--6--6------|
Db|--7--7--7--7--7--7----7--7--7--7--7--7------|
Ab|--7--7--------7-------7--7--------7---------|
Eb|--5--5--------5-------5--5--------5---------|



eb|--5----5----5--5--5--5----5----5----5--5--5----------5-----5-----5-----|
Bb|--5----5----5--5--5--5----3----3----3--3--3----------5-----5-----5-----|
Gb|--7----7----7--7--7--7----4----4----4--4--4----6--6--6-----6--6--6-----|
Db|--7----7----7--7--7--7----5----5----5--5--5----7--7--7-----7--7--7-----|
Ab|--5----5----5--5--5--5-------------------------7--7-----------7--------|
Eb|--------------------------3----3----3--3--3----5--5-----------5--------|


eb|----------------------------|
Bb|----------------------------|
Gb|--2-------------------------|
Db|--2--5--5-----5-----5--5----|
Ab|--0--3--3--0--3--0--3--3----|
Eb|----------------------------|



eb|--------5--5-----5----------5--5-----5------| x2
Bb|--------5--5-----5----------5--5-----5------|
Gb|--6--6--6--6--6--6----6--6--6--6--6--6------|
Db|--7--7--7--7--7--7----7--7--7--7--7--7------|
Ab|--7--7--------7-------7--7--------7---------|
Eb|--5--5--------5-------5--5--------5---------|



eb|--5----5----5--5--5--5----5----5----5--5--5----------5-----5-----5-----|
Bb|--5----5----5--5--5--5----3----3----3--3--3----------5-----5-----5-----|
Gb|--7----7----7--7--7--7----4----4----4--4--4----6--6--6-----6--6--6-----|
Db|--7----7----7--7--7--7----5----5----5--5--5----7--7--7-----7--7--7-----|
Ab|--5----5----5--5--5--5-------------------------7--7-----------7--------|
Eb|--------------------------3----3----3--3--3----5--5-----------5--------|


eb|---------------3----3-3--3--3--3----5--5--5--5--5--5--5--5--5--5--5--5---------| x3
Bb|--7--7--7-7-7--3----3-3--3--3--3----5--5--5--5--5--5--5--5--5--5--5--5---------|
Gb|--7--7--7-7-7--4----4-4--4--4--4----6--6--6--6--6--6--6--6--6--6--6--6---------|
Db|--7--7--7-7-7--5----5-5--5--5--5----7--7--7--7--7--7--7--7--7--7--7--7---------|
Ab|--5--5--5-5-5--5----5-5--5--5--5----7--7--7--7--7--7--7--7--7--7--7--7---------|
Eb|---------------3----3-3--3--3--3----5--5--5--5--5--5--5--5--5--5--5--5---------|



eb|----------------------------------------------------------------------------|
Bb|----------------------------------------------------------------------------|
Gb|----------------------------------------------------------------------------|
Db|--4----4--4----4--4--4----5----5--5----5--5--5----7----7--7----7--7--7------|
Ab|--4----4--4----4--4--4----5----5--5----5--5--5----7----7--7----7--7--7------|
Eb|--2----2--2----2--2--2----3----3--3----3--3--3----5----5--5----5--5--5------|


eb|--------------------------------------------------| x3
Bb|--------------------------------------------------|
Gb|--------------------------------------------------|
Db|--5--5-----5--5--5-----7--7--7--7--7--6--5--------|
Ab|--3--3--0--3--3--3--0--0--0--0--0--0--------------|
Eb|--------------------------------------------------|



eb|--------------------------------------------------------------|
Bb|--------------------------------------------------------------|
Gb|--------------------------------------------------------------|
Db|--5--5-----5--5----5--5-----5--5----5--5-----5--7--8--9-------|
Ab|--3--3--0--3--3----3--3--0--3--3----3--3--0--3--5--6--7-------|
Eb|--------------------------------------------------------------|



eb|---------------------------------------------------| x7
Bb|---------------------------------------------------|
Gb|--9--9----9--9--9--9---9--9--9---9--9--9--9--------|
Db|--9--9----9--9--9--9---9--9--9---9--9--9--9--------|
Ab|--7--7----7--7--7--7---7--7--7---7--7--7--7--------|
Eb|---------------------------------------------------|


eb|--------------------------------------------------| x4
Bb|--------------------------------------------------|
Gb|--------------------------------------------------|
Db|--5--5-----5--5--5-----7--7--7--7--7--6--5--------|
Ab|--3--3--0--3--3--3--0--0--0--0--0--0--------------|
Eb|--------------------------------------------------|


eb|---------------3----3-3--3--3--3----5--5--5--5--5--5--5--5--5--5--5--5---------| 
Bb|--7--7--7-7-7--3----3-3--3--3--3----5--5--5--5--5--5--5--5--5--5--5--5---------|x3
Gb|--7--7--7-7-7--4----4-4--4--4--4----6--6--6--6--6--6--6--6--6--6--6--6---------|
Db|--7--7--7-7-7--5----5-5--5--5--5----7--7--7--7--7--7--7--7--7--7--7--7---------|
Ab|--5--5--5-5-5--5----5-5--5--5--5----7--7--7--7--7--7--7--7--7--7--7--7---------|
Eb|---------------3----3-3--3--3--3----5--5--5--5--5--5--5--5--5--5--5--5---------|



eb|----------------------------------------------------------------------------| 
Bb|----------------------------------------------------------------------------|x2
Gb|----------------------------------------------------------------------------|
Db|--4----4--4----4--4--4----5----5--5----5--5--5----7----7--7----7--7--7------|
Ab|--4----4--4----4--4--4----5----5--5----5--5--5----7----7--7----7--7--7------|
Eb|--2----2--2----2--2--2----3----3--3----3--3--3----5----5--5----5--5--5------|



eb|-------|
Bb|-------|
Gb|-------|
Db|--7----|
Ab|--7----|
Eb|--5----|

comments
We did not receive enough feedback on this tab! Please rate:
print report bad tab
1 2 3 4 5
I want to post or [tab]
guest
You may want to rate the tab now too:
select rating
Please do not post tabs as comments. Select "correction" instead!