Oops, an error
Loading. Please wait.

Five Bagatelles For Guitar - 1 Tab

592 views 1 this week
no commentswrite comment
1 2 3 4 5
please rate
Autoscroll
+/-
esc
set tempo
stop
Contributor
WARNING: You are trying to view
                                    content from Ultimate-Guitar.com
                                    in an unauthorized application,
                                    which is prohibited.

                                    Please use an official Ultimate
                                    Guitar Tabs application for iPhone,
                                    iPad or Android to access legitimate
                                    chords, guitar, bass, and drum tabs
                                    from Ultimate-Guitar.com database.

                                    Type "ultimate guitar tabs" in Apple
                                    App Store's or Android Market's
                                    search to find the application.
Bagatelle No 1 (From Five Bagatelles for Guitar) - William Walton (1902-1983)

original Guitar Pro tab by MQ
text version by Weed - weed@wussu.com - http://www.wussu.com
last updated 1 July 2005

note the many time signature changes

    p = pull-off
    h = hammer-on
   /- = slide up
 <12> = harmonic on the open string, left hand 12th fret
3<12> = harmonic, left hand 3rd fret, right hand 3+12 = 15th fret


   1 3/4
E||--------------------|--12-12-12----12------12--|--14-14-14----14------14--|
B||------------------0-|--------------0---12------|--------------0---12------|
G||--------0-------0---|--------------0-----------|--------------0-----------|
D||----------0---0-----|--------------0-----------|--------------0-----------|
A||------------0-------|--------------0-----------|--------------0-----------|
E||--------------------|--------------------------|--------------------------|

4                          7/8
--12-12-12----12------12--|--14-14-14------------------------|
--------------0---12------|------------12-12-0--14-14-0--15--|
--------------0-----------|------------------0--------0------|
--------------0-----------|----------------------------------|
--------------0-----------|------------------0--------0------|
--------------------------|----------------------------------|

6 3/4
--14--12p10-9--7--9--7--|--9--7--9--7--9--7--|--9--7--9p-7--9p7-9-10-|
------------------------|-----0--------------|-----0-----------------|
------------------------|-----0--------------|-----0-----------------|
------------------------|-----0--------------|-----0-----------------|
------------------------|-----0--------------|-----0-----------------|
------------------------|--------------------|-----------------------|

9 2/4                           3/4                   2/4
--5--------------|----------5--|--7----------------7-|--5--------------|
----6------------|--3--6----6--|--8--0--------5--8---|----6------------|
------7--------4-|----------3--|--5--0------5--------|------7--------4-|
--------8----7---|----------5--|--7-------9----------|--------8----7---|
--------5--------|-------------|-----7---------------|--------5--------|
--------5--------|-------------|-----5---------------|--------5--------|

13                                          3/4
----------5--|--7------------|--0-------7--|--8-------------5--8---|
--3--6----6--|--8--0-----0---|-----8----8--|--10----------6----10--|
----------3--|--5--0-------5-|----------5--|--7---7-----7------7---|
----------5--|--7------7-----|----------7--|--8---7---9--------8---|
-------------|-----7---------|-------------|------8----------------|
-------------|-----5---------|-------------|------6----------------|

17 2/4                             3/8
--10--------10--|--11-------------|-----------8-11-|
--11--------11--|--13-------------|-------8h9------|
--8---9-----8---|--10--10---------|-----8----------|
--10--8---------|------10---------|--10------------|
------10----10--|--11--11----8h12-|----------------|
------10--------|------11---------|----------------|

20 4/4
--15--16----13----3----------|------16----13----3----------|
------------------3----------|------------------3----------|
------13----10----4--13--10--|--12--13----10----4--13--10--|
------------------3----------|------------------3----------|
------------------4----------|------------------4----------|
------------------3----------|------------------3----------|

22 3/4
------------------------|--------------------------|
------9---6--8---9---6--|--------------------------|
--12--------------------|--------------------------|
------------------------|--5-5-6-6-3-3-5-5-6-6-3-3-|
------11--8--10--11--8--|--------------------------|
------------------------|--3---4---1---3---4---1---|

24 4/4                        3/4
--3--4----1----5-5-8-8-11-11-|--12--<12> --0-------|-------------------|
-----------------------------|---------------------|-------------------|
-----------------------------|---------------------|-------------------|
--5--6----3------------------|-------------2--2----|----------------6--|
-----------------------------|---------------------|-----2/---6h-7-----|
--3--4----1----5---8---11----|--12---12-------0----|--0----------------|

27                         4/4
--------------------11-12-|--16--12-16-12----------------------------|
-----------------12-------|-----------------------9------------------|
--------8h-9--11----------|---------------13--------9--------9-------|
--8h-9--------------------|---------------------------13-------13----|
--------------------------|------------------------------11-------11-|
--------------------------|------------------------------------------|

29 2/4          3/4
---------------|--------------------|------4--0--------0--------|
---------------|--------4h-5--------|--4h5------2--------2------|
---------------|--8h-9--------8h-9--|-------------5--------5----|
-----------10--|--------------------|---------------6--------6--|
-----11--------|--------------------|---------------------------|
--9------------|--------------------|---------------------------|

32
--0--------0--0-------------|-------------------|------------------------|
----2-----------2-----------|-------------------|--------------6h7-11h12-|
------5-----------5---------|-------------------|--------7h-8------------|
--------5-----------5p4-4---|-------------------|--8h-9------------------|
----------------------------|-----5----6--8--9--|------------------------|
--------------------------2-|--7----------------|------------------------|

35
--------14----10-11-14--10-11-|--14--10---------------|--2------------2-1-1---|
--11-12-----------------------|--------------7--------|-----3-------3---------|
------------------------------|----------10-----7-----|-----------------------|
------------------------------|-----------------------|--------3--3---------3-|
------------------------------|--------------------8--|-----------------------|
------------------------------|-----------------------|-----------------------|

38                  2/4             3/4
-------------------|---------------|-------12----8-9-12--8-9-|
-------------------|--4h-5--9h-10--|--9-10-------------------|
-------------------|---------------|-------------------------|
-----1----2--6--7--|---------------|-------------------------|
--0----------------|---------------|-------------------------|
-------------------|---------------|-------------------------|

41                       2/4                             3/4
--12--8-----------------|--------------|------------6-7-|--6-7-10----6--------|
------------------------|--------------|--2--3--7-8-----|---------------------|
---------8--------------|--------3h-4--|----------------|---------------6--7--|
------------------------|-----0--------|----------------|---------------------|
------------6h7-7p6-6p5-|--------------|----------------|---------------------|
------------------------|--3-----------|----------------|---------------------|

45 4/4                                             3/4
--10----------10----------10----------------------|-------------------|
-----11----------11----------11-------------------|-------------------|
--------------------------------------------------|-------------------|
--------11-12-------11-12-------11h12-12p11-11p10-|-------------2--4--|
--------------------------------------------------|-----2----3--------|
--------------------------------------------------|--1----------------|

47
------------------4-5-|-----8-----8-----7--|
--------------5-6-----|-----10----9-----8--|
--1--2--4--5----------|-----6-----6-----6--|
----------------------|--------------------|
----------------------|--------------6-----|
----------------------|--6-----------------|

49 5/4                                  3/4
-----6---------------------------------|-----11----11-----10--|
-----8---------------------------11-12-|-----13----12-----11--|
-----6--------------8--12-----12-------|-----9-----9------9---|
-------------8--10---------14----------|----------------------|
----------6----------------------------|---------------9------|
--4------------------------------------|--9-------------------|

51 5/4
-----9-----------------------------9-10-|-----14----14-----13-----12------11--|
-----11------------------10-----10------|-----16----15-----14-----13------12--|
-----7------------7--11------11---------|-----12----12-----12-----10------11--|
--------------11------------------------|----------------------0--------------|
-----------9----------------------------|---------------0-------------10------|
--7-------------------------------------|--0----------------------------------|

53
-----10----10-----9------8------7--|-----8-----8-----7-----8-----7--|
-----8-----11-----10-----10-----8--|-----10----9-----8-----6-----8--|
-----8-----8------8------6------7--|-----6-----6-----7-----7-----7--|
-----------------------------------|--------------------------------|
---------------8-------------6-----|--------------7-----------7-----|
--8-------------------6------------|--6-----------------6-----------|

55                               3/4
-----8-----8-----7-----8-----7--|--------6-9---------------|
-----10----9-----8-----6-----8--|------7-----------7-------|
-----6-----6-----7-----7-----7--|----6-------8-8-8-----6-8-|
--------------------------------|--8-----------------8-----|
--------------7-----------7-----|--6-----------------------|
--6-----------------6-----------|--------------------------|

57
--1---------1-1-1-1-1-1-1-|--------6-9---------------|
--------------------------|------7-----------7-------|
--------------------------|----6-------8-8-8-----6-8-|
----3-3-3-3---------------|--8-----------------8-----|
--------------------------|--6-----------------------|
--1-----------------------|--------------------------|

59
--1---------1-1-1-1-1-1-1-|----------6-6----------9-9-------------|
--------------------------|--------7------------7------------7-7--|
--------------------------|------6------------6------------6------|
----3-3-3-3---------------|----8------------8------------8--------|
--------------------------|--6------------6------------6----------|
--1-----------------------|---------------------------------------|

61
--------6-6--------9-9--------2-2--|--------6-6--------9-9--2------------|
------7----------7----------2------|------7----------7--------2----------|
----6----------6----------3--------|----6----------6------------3--------|
--0----------0----------0----------|--0----------0----------------4------|
-----------------------------------|--------------------------------4----|
-----------------------------------|----------------------------------0--|

63
------------1-1-1-1-1-1-1-|------------1-1-1-1-1-1-1-|---------------5-7----|
--------------------------|--------------------------|-----------6----------|
--------------------------|--------------------------|--------5-------------|
----3-3-3-3---------------|----3-3-3-3---------------|-----7----------------|
--------------------------|--------------------------|--5-------------------|
--1-----------------------|--1-----------------------|----------------------|

66
---------------7-8----|--------------5--7--8--|--8-10-7-5--7--8--12--8--|
----------------------|-----------6-----------|-------------------------|
-----------5----------|--------5--------------|-------------------------|
--------5-------------|-----7-----------------|-------------------------|
-----7----------------|--5--------------------|-------------------------|
--5-------------------|-----------------------|-------------------------|

69
--7--10--8-10-7-5--10--5--|--8--5--------------|-----------------5--|
--------------------------|--------------------|--------------6-----|
--------------------------|--------6-----------|--5--6--5--6--------|
--------------------------|-----------------7--|--------------------|
--------------------------|--------------8-----|--------------------|
--------------------------|-----------6--------|--------------------|

72
--8--5--------------|-----------------5--|--8--5--------------|
--------------------|--------------6-----|--------6-----------|
--------6-----------|--2--3--5--6--------|-----------------2--|
-----------------3--|--------------------|--------------------|
--------------4-----|--------------------|--------------4-----|
-----------4--------|--------------------|-----------2--------|

75                                         5/4
-----------5--6--8--|--11--9--8--9--5--6--|--11--9--8--9--5--6--5--6--11--9--|
--1-----------------|---------------------|----------------------------------|
-----2--------------|---------------------|----------------------------------|
--------4-----------|---------------------|----------------------------------|
--------------------|---------------------|----------------------------------|
--------------------|---------------------|----------------------------------|

78 3/4
--8-9-12---------|---------------5<12>-7<12>----|
-----------------|-----------6------------------|
-----------------|--------5---------------------|
-----------------|-----7------------------------|
-----------------|--5---------------------------|
-----------------|------------------------------|

80
--------------7<12>-8<12>---|--------------5<12>--7<12>--8<12>--|
----------------------------|-----------6-----------------------|
-----------5----------------|--------5--------------------------|
--------5-------------------|-----7-----------------------------|
-----7----------------------|--5--------------------------------|
--5-------------------------|-----------------------------------|

82
--7<12>--8<12>--12<12>--8<12>--12<12>--8<12>--|
----------------------------------------------|
----------------------------------------------|
----------------------------------------------|
----------------------------------------------|
----------------------------------------------|


83
--7<12>--8<12>--7<12>--5<12>--8<12>--5<12>--|
----------------------------------------------|
----------------------------------------------|
----------------------------------------------|
----------------------------------------------|
----------------------------------------------|

84 4/4
--8<12>--5<12>--------------------------5-8-9-|
--------------------------------------6-------|
----------------6<12>-----------5--6----------|
-----------------------------7----------------|
--------------------------8-------------------|
-----------------------6----------------------|

85
--8<12>--5<12>--------------------------5-8-9-|
--------------------------------1--3--6-------|
----------------6<12>--------2----------------|
--------------------------3-------------------|
----------------------------------------------|
-----------------------4----------------------|

86
--8<12>--5<12>--------------------------------13-|
-----------------------------------------9-10----|
----------------6<12>--------------6--10---------|
-----------------------------6--7----------------|
--------------------------4----------------------|
-----------------------2-------------------------|

87 3/4
--4<12>--------------------------------|
---------6<12>-------------------------|
---------------------------------------|
----------------<7>---------------<7>--|
------------------------4--9--11-------|
---------------------0-----------------|

88                  5/4                                  3/4
-------------------|------------------------------------|-----------------|
--9----------------|------------------------------------|--4---4----------|
-----10------------|------------------------------------|--3---3----------|
---------7------4--|--6--7--6-7-6-4--6--4--6--4--7--11--|--4---4----------|
-------------------|------------------------------------|-----------------|
-------------------|------------------------------------|----4------------|

91
-----------------------|-----------------------|-----------------------|
--4---4----4---------4-|--6---6----6---------6-|--4---4----4---------4-|
--3---3------3-----3---|--3---3------------6---|--3---3------3-----3---|
--4---4----------4-----|--4---4------8---8-----|--4---4----------4-----|
---------------4-------|---------------9-------|---------------4-------|
----4------------------|----4------------------|----4------------------|

94                      7/8                        3/4
-----------------------|---------6-6-6--8-8-8--9--|--13--11-9-8--6--8--6--|
--6---6----6---------6-|--4---4-------------------|-----------------------|
--3---3------------6---|--3---3--3------5------6--|--10-------------------|
--4---4------8---8-----|--4---4-------------------|-----------------------|
---------------9-------|--------------------------|-----------------------|
----4------------------|----4---------------------|-----------------------|

97
--8-8-6--8-8-6--8-6-8-9-|--14--12-10-9--7--9--7--|--9-9-7--9-9-7--9-7-9-10-|
------------------------|------0-----------------|-------------------------|
------------------------|------0-----------------|-------------------------|
------------------------|------0-----------------|-------------------------|
------------------------|------0-----------------|-------------------------|
------------------------|------------------------|-------------------------|

100 2/4                         3/4                   2/4
--5--------------|----------5--|--7----------------7-|--5--------------|
----6------------|--3--6----6--|--8--0--------5--8---|----6------------|
------7--------4-|----------3--|--5--0------5--------|------7--------4-|
--------8----7---|----------5--|--7-------9----------|--------8----7---|
--------5--------|-------------|-----7---------------|--------5--------|
--------5--------|-------------|-----5---------------|--------5--------|

104                                         3/4
----------5--|--7------------|--0-------7--|--8-------------5--8---|
--3--6----6--|--8--0-----0---|-----8----8--|--10----------6----10--|
----------3--|--5--0-------5-|----------5--|--7---7-----7------7---|
----------5--|--7------7-----|----------7--|--8---7---9--------8---|
-------------|-----7---------|-------------|------8----------------|
-------------|-----5---------|-------------|------6----------------|

108 2/4          3/4                          4/5
--10--------10--|--11-------------------8-11-|--15--16----13----3----------|
--11--------11--|--13-----------------9------|------------------3----------|
--8---9-----8---|--10--10----------10--------|------13----10----4--13--10--|
--10--8---------|------10----10-11-----------|------------------3----------|
------10----10--|--11--11--------------------|------------------4----------|
------10--------|------11--------------------|------------------3----------|

111                         3/4
------16----13----3--------|--------------------------|
------------------3--9--6--|--8-8-9-9-6-6-8-8-9-9-6-6-|
--12--13----10----4--------|--------------------------|
------------------3--------|--------------5---6---3---|
------------------4--------|--------------------------|
------------------3--------|--------------------------|

113                        4/5
--------------------------|---------------------------|
--------------------------|-----------------------4-4-|
--------------------------|-------------------5-5-----|
--5-5-6-6-3-3-5-5-6-6-3-3-|--5--6----3----6-6---------|
--------------------------|-----4----4--------3---6---|
--------------3---4---1---|-----3----3----4-----------|

115 5/4
--0-0--------0-------------------|--0-0--------0-------------------|
--3----------3---------------4-4-|--3----------3---------------4-4-|
--2---2------2-----------5-5-----|--2---2------2-----------5-5-----|
-------------2-------6-6---------|-------------2-------6-6---------|
------0---------0--------3---6---|------0---------0--------3---6---|
---------------------4-----------|---------------------4-----------|

117 3/4
--0-0-----------8--8-11-11-|--12-12-----12-12-----12-12-----|
--3--------9--9------------|--------10--------10--------10--|
--2---2--------------8-----|--9---------9---------9---------|
----------------10---------|--------------------------------|
------0----11--------------|--------0---------0---------0---|
---------------------------|--------------------------------|

119
--17--12------0----------|-------17--------||
-------------------------|-------15--------||
----------14-----2-------|-------14--------||
-------------------2-----|-------14--------||
---------------------0---|--0--------------||
-----------------------0-|-----------------||

comments
We did not receive enough feedback on this tab! Please rate:
print report bad tab
1 2 3 4 5
I want to post or [tab]
guest
You may want to rate the tab now too:
select rating
Please do not post tabs as comments. Select "correction" instead!