Oops, an error
Loading. Please wait.

Five Bagatelles For Guitar - 5 Tab

244 views 3 this week
no commentswrite comment
1 2 3 4 5
please rate
Autoscroll
+/-
esc
set tempo
stop
Contributor
Hey! There's an official Ultimate Guitar app which is ideal
for learning songs when you're away from computer. Get the app
WARNING: You are trying to view
                                    content from Ultimate-Guitar.com
                                    in an unauthorized application,
                                    which is prohibited.

                                    Please use an official Ultimate
                                    Guitar Tabs application for iPhone,
                                    iPad or Android to access legitimate
                                    chords, guitar, bass, and drum tabs
                                    from Ultimate-Guitar.com database.

                                    Type "ultimate guitar tabs" in Apple
                                    App Store's or Android Market's
                                    search to find the application.
Bagatelle No 5 (From Five Bagatelles for Guitar) - William Walton (1902-1983)

original Guitar Pro tab by MQ
text version by Weed - weed@wussu.com - http://www.wussu.com
last updated 1 July 2005

note the many time signature changes

<12> = harmonic on the open string, left hand 12th fret

time signature - 2/4


1 2/4
E||---------------------|-----------|------------------|------------------|
B||-----5-5-5-5-5-0-0-2-|--3--------|------------3-3-3-|--5-5-5-5-5-0-0-2-|
G||---------------------|-----------|----0-0-0-2-------|------------------|
D||-(2)-----------------|-----------|--0-------5-------|------------------|
A||---------------------|-----------|--3---------------|------------------|
E||---------------------|-----------|------------------|------------------|

5
-----------|------------------|------------------|------------------|
--3--------|------------3-3-3-|--5-5-5-5-5-0-0-2-|--3-3-3-3-3-------|
-----------|----0-0-0-2-------|------------------|------------2-2-4-|
-----------|--0-------5-------|----------5-------|----------3-------|
-----------|--3---------------|----------3-------|----------1-------|
-----------|------------------|------------------|------------------|

9
------------------|------------------|------------------|------------------|
------------------|------------------|------------------|------------------|
--5-4-2-0-5-4-2-0-|----------------0-|--5-4-2-0-5-4-2-0-|------------------|
----------5-------|----------4-4-4---|----------5-------|----------4-4-4-5-|
----------0-------|----4-4-5---------|----------0-------|----4-4-5---------|
----------0-------|--2---------------|----------0-------|--2---------------|

13
------------------|------------------|------------------|-------------|
------------------|------------------|----------1-0-----|-------------|
--5-4-2-0-5-4-2-0-|--5-4-2-0-5-4-2-0-|--5-4-2-0-0---2-0-|-------------|
----------0-------|----------2-------|----------2-------|--4-4--------|
----------0-------|----------0-------|----------0-------|-------------|
----------0-------|----------2-------|------------------|------2------|

17
---------------|---------------|------------------|-----------|
---------------|---------------|------------------|-----------|
---------------|---------------|------------------|-----------|
---------------|--5-4-4-4-4----|--------4-5-4-4-7-|--6--------|
---------------|---------------|------------------|-----------|
--3-2-2-2-2----|---------------|--3-2-2-----------|-----------|

21
------------------|--4-4-4-4-4-------|--2--------|----------------2-|
------------------|------------4-4-6-|-----------|------------3-3---|
------------------|--5---------------|-----------|----2-2-2-2-------|
--------6-7-6-6-6-|--4---------------|-----------|--0---------------|
------------------|--5---------------|-----------|--3---------------|
--5-4-4-----------|------------------|-----------|------------------|

25
--4-4-4-4-4-------|--2--------|----------------2-|--7-7-7-7-7-------|
------------4-4-5-|-----------|------------3-3---|------------7-7-9-|
--5---------------|-----------|----2-2-2-2-------|----------8-------|
--4---------------|-----------|--0---------------|----------7-------|
--5---------------|-----------|--3---------------|----------8-------|
------------------|-----------|------------------|------------------|

29
--6-6-6-6-6-----6-|--9-9-9-9-9---------|--8-8-8-8-8-----8-|
------------6-7---|-------------9-9-11-|------------8-9---|
----------7-------|----------11--------|----------9-------|
----------6-------|----------9---------|----------8-------|
----------7-------|----------10--------|----------9-------|
------------------|--------------------|------------------|

32
--11-11-11-11-11-------8-|--10------------8-10-|--11-11-11-11-11----------|
-----------------11-11---|-----------7-10------|-----------------11-11-13-|
--------------12---------|---------7-----------|--------------9-----------|
--------------11---------|-------7-------------|--------------------------|
--------------0----------|---------------------|--------------------------|
-------------------------|-----8---------------|--------------11----------|

35
--10------------8-10-|--11-11-11-11-11-------8-|--10-10-10-10-10-------10-|
-----------7-10------|-----------------11-11---|-----------------10-11----|
---------7-----------|--------------9----------|--------------8-----------|
-------7-------------|--------------11---------|--------------10----------|
---------------------|-------------------------|--------------------------|
-----8---------------|-------------------------|--------------------------|

38
--13-12-10-------------|--5-------------5-|--13-12-10-------------|
--11-------13-11-8-7---|--------------5---|--11-------13-11-8-7---|
--0------------------7-|------------7-----|--0------------------7-|
--0--------------------|----------7-------|--0--------------------|
-----------------------|------5-7---------|-----------------------|
-----------------------|----5-------------|-----------------------|

41
--5-------------5-|--13-12-10-------------10-|--13-12-10-------------10-|
--------------5---|--11-------13-11-10-11----|--11-------13-11-10-11----|
------------7-----|--0-----------------------|--0-----------------------|
----------7-------|--------------------------|--0-----------------------|
------5-7---------|--------------------------|--------------------------|
----5-------------|--------------------------|--------------------------|

44
--13-12-10-------------|--5---------------|------------------|
--11-------13-11-8-7---|------------------|------------------|
--0------------------7-|----2-2-2-2-------|------------------|
--0--------------------|------------------|------------------|
--0--------------------|--0---------0-0-0-|----0-0-0-0-0-0-0-|
--0--------------------|------------------|--5---------------|

47
------------------|------------------|------------------|------------------|
----------3---2---|----------3---2---|------------------|----------------2-|
--3-------3---2---|--3-------3---2---|--4---2---4---2---|--0---2---4-2-4---|
--5---------------|--5---------------|--5---4---5---4---|--2---4---5-------|
----0-0-0---0---0-|----0-0-0---0---0-|----0---0---0---0-|----0---0---------|
------------------|------------------|------------------|------------------|

51
------------------|------------------|------------------|----------------0-|
--3-------6---5---|--3-------6---5---|--3---1-----------|--------------3---|
--3-------6---5---|--3-------6---5---|--3---2---3---2---|--3---2---4-5-----|
--3-------6---5---|--3-------6---5---|--3-------5---4---|--5---4---5-------|
----0-0-0---0---0-|----0-0-0---0---0-|----0---0---0---0-|----0---0---------|
------------------|------------------|------------------|------------------|

55
--3-------6---5---|--3---1------------|--6-------9----8----|--6---5---3-5-6-8-|
--4-------8---6---|--4---3---5-6-8-10-|--8-------11---10---|--8---7---5-------|
--5-------8---7---|--5---3---5--------|----------9----8----|--6---5---3-------|
------------------|----------5--------|--8-----------------|------------------|
----0-0-0---0---0-|----0---0----------|----0-0-0----0----0-|----0---0---------|
------------------|-------------------|--------------------|------------------|

59
--11---------------------|----------9---12--|--7-7-7-7-7-------|
--12-12-12-12-12-------9-|--10--10--10--10--|--7---------7-7-9-|
--11-------------11-11---|------9---9---9---|--8---------------|
--9----------------------|------11--11--11--|--9---------------|
--0----------------------|------11--9-------|--0---------------|
-------------------------|------------------|------------------|

62
----------9---12--|--7-7-7-7-7-------|--5-5-5-5-5-------|--5-4-------------|
--10--10--10--10--|------------7-7-9-|------------5-5-7-|--5---7-5-4-------|
------9---9---9---|----------8-------|----------6-------|------------6-4---|
------11--11--11--|----------7-------|----------6-------|--4-------------7-|
------11--9-------|------------------|------------------|------------------|
------------------|------------------|------------------|------------------|

66
------------------|--5-4-------------|------------------|--5-4-2-0-5-4---0-|
--------------4-7-|--5---7-5-4-------|--------------4-7-|----------5---7---|
------------6-----|------------6-4---|------------6-----|----------6-------|
--------4-6-------|--4-------------7-|--------4-6-------|----------4-------|
----4-6-----------|------------------|----4-6-----------|------------------|
--4---------------|------------------|--4---------------|------------------|

70
--5-4---0-5-4---0-|--5-4---0-4---4-7-|--6--------|--6-6-6-6-6-------|
------7---7---7---|------7---5-5-----|--7--------|------------6-6-8-|
----------6-------|----------4-------|--4--------|--7---------------|
----------0-------|------------------|--6--------|--6---------------|
------------------|----------4-------|-----------|--7---------------|
------------------|------------------|-----------|------------------|

74
-----------|------------0-----|--6-6-6-6-6-------|-----------|
--9--------|----0-0-0-0---5-9-|------------6-6-8-|--9--------|
-----------|------------------|--7---------------|-----------|
-----------|--0---------------|--6---------------|-----------|
-----------|--7---------------|--7---------------|-----------|
-----------|------------------|------------------|-----------|

78
------------0-----|--9-9-9-9-9---------|--8-8-8-8-8-----8-|
----0-0-0-0---5-9-|-------------9-9-11-|------------8-9---|
------------------|----------10--------|----------9-------|
--0---------------|----------9---------|----------8-------|
--7---------------|----------10--------|----------9-------|
------------------|--------------------|------------------|

81
--11-11-11-11-11-------8-|--10-10-10-10-10-------10-|--11-11-11-11-11-------8-|
-----------------11-11---|-----------------10-11----|-----------------11-11---|
--------------12---------|--------------11----------|--------------12---------|
--------------11---------|--------------10----------|--------------11---------|
--------------0----------|--------------11----------|--------------0----------|
-------------------------|--------------------------|-------------------------|

84
--10-10-10-10-10-------10-|--13-12-10----------------|--12------------------10-|
-----------------10-11----|--11-------13-11-10-------|----------10-12-10-12----|
--------------11----------|--0-----------------12-11-|-----9-11----------------|
--------------10----------|--0-----------------------|-------------------------|
--------------11----------|--------------------------|-------------------------|
--------------------------|--------------------------|--0----------------------|

87
--13-12-10----------------|--12------------------10-|--13-12-10---------------|
--11-------13-11-10-------|----------10-12-10-12----|--11-------13-12-10-12-3-|
--0-----------------12-11-|-----9-11----------------|--0----------------------|
--0-----------------------|-------------------------|--0----------------------|
--------------------------|-------------------------|-------------------------|
--------------------------|--0----------------------|-------------------------|

90
------------------|------------------|------------0-0-0-|--0---------------|
--6-5-3-------0---|------------------|------------------|------------------|
--3-----5-4-2-----|------------------|------------------|------------------|
--0-------------0-|--3-2-0-----------|----2-2-2-2-------|----2-2-2-2-------|
--0---------------|--------3-1-0-----|------------------|------------------|
------------------|--------------3-1-|--0---------------|------------0-0-0-|

94
------------------|------------------|------------------|------------------|
------------------|------------------|------------------|------------------|
----------2---1---|----------2---1---|------------------|------------------|
--4-------3---2---|--4-------3---2---|--4---2---4---2---|--0---2---4-2-4-6-|
--5---------------|--5---------------|--5---4---5---4---|--2---4---5-------|
----0-0-0---0---0-|----0-0-0---0---0-|----0---0---0---0-|----0---0---------|

98
------------------|------------------|------------------|------------------|
------------------|------------------|------------------|------------------|
--2-------5---4---|--2-------5---4---|--2---0---2---0---|------------0-2-4-|
--3-------6---5---|--3-------6---5---|--3---2---2---2---|--4---2---4-------|
--3-------6---5---|--3-------6---5---|--3---2---3---2---|--5---3---5-------|
----0-0-0---0---0-|----0-0-0---0---0-|----0---0---0---0-|----0---0---------|

102
------------------|------------------|------------------|----------------1-|
--3-------6---5---|--3---------------|--3-------6---5---|--3-----------3---|
--3-------7---5---|--3-------0-2-4-5-|--3-------7---5---|--3---------3-----|
--3-------8---7---|--5-----0---------|--5-------8---7---|--5-----0-3-------|
------------------|------0-----------|------------------|------0-----------|
----0-0-0---0---0-|----0-------------|----0-0-0---0---0-|----0-------------|

106
--2-------5---4---|--2---------------|--2-------5---4---|--2---------------|
--3-------6---5---|--3-----------0-3-|--3-------6---5---|--3-----------0-3-|
--4-------7---6---|--4---------2-----|--4-------7---6---|--4---------2-----|
------------------|--------0-4-------|------------------|--------0-4-------|
------------------|------0-----------|------------------|------0-----------|
----0-0-0---0---0-|----0-------------|----0-0-0---0---0-|----0-------------|

110
--2-------5---4---|--2---2---5---4---|--2---2---5---4---|--2---4---5---7---|
--3-------6---5---|--3---3---6---5---|--3---3---6---5---|--3---5---6---8---|
--4-------7---6---|--4---4---7---6---|--4---4---7---6---|--4---6---7---9---|
------------------|------------------|------------------|------------------|
------------------|------------------|------------------|------------------|
----0-0-0---0---0-|----0---0---0---0-|----0---0---0---0-|----0---0---0---0-|

114
--9----10---7---11---|----17-17-17-17-12-12-14-|--15-------------------|
--10---12---8---12---|-------------------------|------------<12>-------|
--11---12---9---13---|-------------------------|------<12>--<12>--<7>--|
---------------------|-------------------------|------<12>--<12>--<7>--|
---------------------|--0----------------------|------<12>--<12>--<7>--|
-----0----0---0----0-|-------------------------|------<12>--------<7>--|


-----------------------|--------7--10--|-----3--7--10--|-----7--10--14--|
----10-10-10-10--------|--8--8--8--8---|-----3--8--8---|-----8--8---12--|
----------------9-9-11-|-----7--7--7---|-----4--7--9---|-----7--7---0---|
-----------------------|-----9-----9---|---------------|-----9--9---0---|
--0--------------------|-----9--7------|--0------------|--0-----7-------|
-----------------------|---------------|-----2--0--7---|----------------|


-----17-17-15-15-13-13-|--11-11-10-10-8-8-6-6-|-----5--3--1--|--------------|
-----17----15----13----|--11----10----8---6---|-----5--3--1--|--4--3--------|
-----16----14----12----|--10----9-----7---5---|-----5--3--2--|--3--2--5--3--|
-----------------------|----------------------|-----5--3--1--|--5--3--5--3--|
--0--------------------|----------------------|--0-----------|--5--3--6--4--|
-----------------------|----------------------|--------------|--------6--4--|


-----------||
-----------||
--2--------||
-----------||
--0--------||
-----------||

comments
We did not receive enough feedback on this tab! Please rate:
print report bad tab
1 2 3 4 5
I want to post or [tab]
guest
You may want to rate the tab now too:
select rating
Please do not post tabs as comments. Select "correction" instead!