Oops, an error
Loading. Please wait.

Seven Spanish Angels Tab

29,210 views 49 this week
1 commentread comment
1 2 3 4 5
excellent!
x 4
Autoscroll
+/-
esc
set tempo
stop
Contributor
WARNING: You are trying to view
                                    content from Ultimate-Guitar.com
                                    in an unauthorized application,
                                    which is prohibited.

                                    Please use an official Ultimate
                                    Guitar Tabs application for iPhone,
                                    iPad or Android to access legitimate
                                    chords, guitar, bass, and drum tabs
                                    from Ultimate-Guitar.com database.

                                    Type "ultimate guitar tabs" in Apple
                                    App Store's or Android Market's
                                    search to find the application.
Seven Spanish Angels
--------------------

song-  Seven Spanish Angels
band-  Willie Nelson
year-  ?
album- ?

tuning:

standard tuning (E A D G B E)


Intro    gtr 1

|5--5--6---8----8---8---8--6--5--|3--5----------------|-------------------|
|6--6--8--10---10--10--10--8--6--|5--6--6---6--6--5---|5--3--3---3--3-----|
|--------------------------------|------7---7--7--5---|5--3--3---3--3--5--|
|--------------------------------|--------------------|----------------7--|
|--------------------------------|--------------------|-------------------|
|--------------------------------|--------------------|-------------------|

|--------5-6p5-----------|
|--------------6---------|
|--5-------------7-7--5--|
|--7---------------------|
|------------------------|
|------------------------|


gtr 2

|1-------------|1-------------|----------1----|1-----------|
|1-------------|3-------------|3---------1----|1-----------|
|2-------------|2-------------|3---------2----|2-----------|
|3-------------|0-------------|3---------3----|3-----------|
|3-------------|--------------|1---------3----|3-----------|
|1-------------|--------------|---------------|1-----------|



tab legend
-------------

p        pull off



well i was lookin and some of the tabs r pretty good but they didnt
have the intro so i decided i would put it so here u go!!
1 comment total.
0 reply
GraceKim wrote on April 8 2010, 02:34 pm

|5--6--8----------8---8---8--6--5--3--5---------------|
|6--8--10--------10--10--10--8--6--5--6--6------------|
|----------------------------------------7------------|
|-----------------------------------------------------|
|-----------------------------------------------------|
|-----------------------------------------------------|

|-------------------------------------5-6p5-----------|
|---6--6--5--5--3--3------3--3--------------6---------|
|---7--7--5--5--3--3------3--3--5--5----------7--5-5--|
|-------------------------------7--7------------------|
|-----------------------------------------------------|
|-----------------------------------------------------|

I want to post or [tab]
guest
You may want to rate the tab now too:
select rating
Please do not post tabs as comments. Select "correction" instead!