Oops, an error
Loading. Please wait.

Courtesy Bow Tab

ver1
ver1

Intro

Whole song

More versions @911Tabs.com
526 views 1 this week
no commentswrite comment
1 2 3 4 5
please rate
Autoscroll
+/-
esc
set tempo
stop
Contributor
Difficulty
Tuning
intermediate
C G C F A D
WARNING: You are trying to view
                                    content from Ultimate-Guitar.com
                                    in an unauthorized application,
                                    which is prohibited.

                                    Please use an official Ultimate
                                    Guitar Tabs application for iPhone,
                                    iPad or Android to access legitimate
                                    chords, guitar, bass, and drum tabs
                                    from Ultimate-Guitar.com database.

                                    Type "ultimate guitar tabs" in Apple
                                    App Store's or Android Market's
                                    search to find the application.
INTRO: thanks to _sXe_ for their version of the intro

D|--------------------------------------------------------------|
A|--------------------------------------------------------------|
F|--------------------------------------------------------------|
C|--------------------------------------------------------------|
G|-0-000-5---5----0-000-0-0-0-8---7---3h5p3---------------------|
C|-0-000--0-0-0-0-0-000-0-0-0--0-0-0-0--------------------------|
   . ...  . . . . . ... . . .  . . . .
D|--------------------------------------------------------------|
A|--------------------------------------------------------------|
F|--------------------------------------------------------------|
C|--------------------------------------------------------------|
G|-0-000-5---5----0-000-0-0-0-10---3----7p5h7-------------------|
C|-0-000--0-0-0-0-0-000-0-0-0---0-0-0-0-------------------------|x2
   . ...  . . . . . ... . . .   . . . .

VERSE:
D|--------------------------------------------------------------|
A|--------------------------------------------------------------|
F|--------------------------------------------------------------|
C|--------------------------------------------------------------|
G|-0-000-5---5----0-000-0-0-0-8---7---3h5p3---------------------|
C|-0-000--0-0-0-0-0-000-0-0-0--0-0-0-0--------------------------|
   . ...  . . . . . ... . . .  . . . .

D|--------------------------------------------------------------|
A|--------------------------------------------------------------|
F|--------------------------------------------------------------|
C|--------------------------------------------------------------|
G|-0-000-5---5----0-000-0-0-0-10---3----7p5h7-------------------|
C|-0-000--0-0-0-0-0-000-0-0-0---0-0-0-0-------------------------|
   . ...  . . . . . ... . . .   . . . .

D|--------------------------------------------------------------|
A|--------------------------------------------------------------|
F|--------------------------------------------------------------|
C|--------------------------------------------------------------|
G|---000-7-8-000-000-5-7-3--------------------------------------|
C|---000--0--000-000--0-0---------------------------------------|
     ...  .  ... ...  . . 

D|--------------------------------------------------------------|
A|--------------------------------------------------------------|
F|--------------------------------------------------------------|
C|--------------------------------------------------------------|
G|-0-000-5---5----0-000-0-0-0-8---7---3h5p3---------------------|
C|-0-000--0-0-0-0-0-000-0-0-0--0-0-0-0--------------------------|
   . ...  . . . . . ... . . .  . . . .

D|--------------------------------------------------------------|
A|--------------------------------------------------------------|
F|--------------------------------------------------------------|
C|--------------------------------------------------------------|
G|-0-000-5---5----0-000-0-0-0-10---3----7p5h7-------------------|
C|-0-000--0-0-0-0-0-000-0-0-0---0-0-0-0-------------------------|
   . ...  . . . . . ... . . .   . . . .

D|--------------------------------------------------------------|
A|--------------------------------------------------------------|
F|--------------------------------------------------------------|
C|--------------------------------------------------------------|
G|---000-7-8-000-000-7-8-7h8p7-----8-10---------10-8-8h10p8-----|
C|---000--0--000-000--0-0------000--0---000-000---0-0-----------|
     ...  .  ... ...  . .      ...  .   ... ...   . .

CHORUS:
D|--------------------------------------------------------------|
A|--------------------------------------------------------------|
F|--------------------------------------------------------------|
C|--7\---------7\-7\-----------------33333333333335555555555555-|
G|--5\-0000000-5\-5\-000000000000000-11111111111113333333333333-|
C|-----0000000-------000000000000000----------------------------|
       .......       ...............
    
D|----------------------------------------------------------------|
A|----------------------------------------------------------------|
F|----------------------------------------------------------------|
C|--7\---------7\-7\-----------------555555555555555555555333222--|
G|--5\-0000000-5\-5\-000000000000000-333333333333355555555333222--|
C|-----0000000-------000000000000000--------------55555555333222--|
       .......       ...............

D|--------------------------------------------------------------|
A|--------------------------------------------------------------|
F|--------------------------------------------------------------|
C|--10\--------10\10\----------------33333333333335555555555555-|
G|--8\-0000000-8\-8\-000000000000000-11111111111113333333333333-|
C|-----0000000-------000000000000000----------------------------|
       .......       ...............

D|----------------------------------------------------------------|
A|----------------------------------------------------------------|
F|----------------------------------------------------------------|
C|--10\--------10\10\----------------55555555555555~----333-222---|
G|--8\-0000000-8\-8\-000000000000000-33333333333335~----333-222---|
C|-----0000000-------000000000000000--------------5~----333-222---|
       .......       ...............                    ... ...

PRE-VERSE:
D|--------------------------------------------------------------|
A|--------------------------------------------------------------|
F|--------------------------------------------------------------|
C|-----------------------------------------9\-------------------|
G|---000-----000-000------000-----000-000--7\-------------------|
C|---000-----000-000------000-----000-000-----------------------|
     ...     ... ...      ...     ... ...

VERSE:
D|--------------------------------------------------------------|
A|--------------------------------------------------------------|
F|--------------------------------------------------------------|
C|--------------------------------------------------------------|
G|-0-000-5---5----0-000-0-0-0-8---7---3h5p3---------------------|
C|-0-000--0-0-0-0-0-000-0-0-0--0-0-0-0--------------------------|
   . ...  . . . . . ... . . .  . . . .

D|--------------------------------------------------------------|
A|--------------------------------------------------------------|
F|--------------------------------------------------------------|
C|--------------------------------------------------------------|
G|-0-000-5---5----0-000-0-0-0-10---3----7p5h7-------------------|
C|-0-000--0-0-0-0-0-000-0-0-0---0-0-0-0-------------------------|
   . ...  . . . . . ... . . .   . . . .

D|--------------------------------------------------------------|
A|--------------------------------------------------------------|
F|--------------------------------------------------------------|
C|--------------------------------------------------------------|
G|-0-000-5---5----0-000-0-0-0-8---7---3h5p3---------------------|
C|-0-000--0-0-0-0-0-000-0-0-0--0-0-0-0--------------------------|
   . ...  . . . . . ... . . .  . . . .

D|--------------------------------------------------------------|
A|--------------------------------------------------------------|
F|--------------------------------------------------------------|
C|--------------------------------------------------------------|
G|-0-000-5---5----0-000-0-0-0-10---3----7p5h7-------------------|
C|-0-000--0-0-0-0-0-000-0-0-0---0-0-0-0-------------------------|
   . ...  . . . . . ... . . .   . . . .

D|--------------------------------------------------------------|
A|--------------------------------------------------------------|
F|--------------------------------------------------------------|
C|--------------------------------------------------------------|
G|---000-7-8-000-000-5-7-3--------------------------------------|
C|---000--0--000-000--0-0---------------------------------------|
     ...  .  ... ...  . . 

D|--------------------------------------------------------------|
A|--------------------------------------------------------------|
F|--------------------------------------------------------------|
C|--------------------------------------------------------------|
G|-0-000-5---5----0-000-0-0-0-8---7---3h5p3---------------------|
C|-0-000--0-0-0-0-0-000-0-0-0--0-0-0-0--------------------------|
   . ...  . . . . . ... . . .  . . . .

D|--------------------------------------------------------------|
A|--------------------------------------------------------------|
F|--------------------------------------------------------------|
C|--------------------------------------------------------------|
G|-0-000-5---5----0-000-0-0-0-10---3----7p5h7-------------------|
C|-0-000--0-0-0-0-0-000-0-0-0---0-0-0-0-------------------------|
   . ...  . . . . . ... . . .   . . . .

D|--------------------------------------------------------------|
A|--------------------------------------------------------------|
F|--------------------------------------------------------------|
C|--------------------------------------------------------------|
G|---000-7-8-000-000-7-8-7h8p7-----8-10---------10-8-8h10p8-----|
C|---000--0--000-000--0-0------000--0---000-000---0-0-----------|
     ...  .  ... ...  . .      ...  .   ... ...   . .

CHORUS:
D|--------------------------------------------------------------|
A|--------------------------------------------------------------|
F|--------------------------------------------------------------|
C|--7\---------7\-7\-----------------33333333333335555555555555-|
G|--5\-0000000-5\-5\-000000000000000-11111111111113333333333333-|
C|-----0000000-------000000000000000----------------------------|
       .......       ...............
    
D|----------------------------------------------------------------|
A|----------------------------------------------------------------|
F|----------------------------------------------------------------|
C|--7\---------7\-7\-----------------555555555555555555555333222--|
G|--5\-0000000-5\-5\-000000000000000-333333333333355555555333222--|
C|-----0000000-------000000000000000--------------55555555333222--|
       .......       ...............

D|--------------------------------------------------------------|
A|--------------------------------------------------------------|
F|--------------------------------------------------------------|
C|--10\--------10\10\----------------33333333333335555555555555-|
G|--8\-0000000-8\-8\-000000000000000-11111111111113333333333333-|
C|-----0000000-------000000000000000----------------------------|
       .......       ...............

D|----------------------------------------------------------------|
A|----------------------------------------------------------------|
F|----------------------------------------------------------------|
C|--10\--------10\10\----------------55555555555555~----3~--2~----|
G|--8\-0000000-8\-8\-000000000000000-33333333333335~----3~--2~----|
C|-----0000000-------000000000000000--------------5~----3~--2~----|
       .......       ...............                           

INTERLUDE:
D|---------------------------------------|
A|---------------------------------------|
F|---------------------------------------|
C|---------------------------------------|
G|---000000--000000------0(volume)-------|
C|---000000--000000------0(swell-)-------|
     ......  ......

D|---------------------------------------------------------------------|
A|---------------------------------------------------------------------|
F|---------------------------------------------------------------------|
C|---------------------------------------------------------------------|
G|---000000--00000--000000-5-7-8-000000--00000--00-0-5h8p5h8-4h7p4h7---|x4
C|---000000--00000--000000--0-0--000000--00000--00-0-------------------|
     ......  .....  ......  . .  ......  .....  .. .

BRIDGE:
Guitar one
D|--------------------------------------------------------------|
A|--------------------------------------------------------------|  
F|--------------------------------------------------------------|   
C|--------------------------------------------------------------|   
G|-----7h9-7h9-------7h9-7h9-------8h10-8h10-10-8-7-8-7-5-------|x3
C|--------------------------------------------------------------|  

Guitar two
D|--------------------------------------------------------------|
A|--------------------------------------------------------------|
F|--------------------------------------------------------------|
C|--0~-----------0~------------8~-------------------------------|
G|--0~-----------0~------------8~------------10-8-7-8-7-5-------|x3
C|--0~-----------0~------------8~-------------------------------|
                                       
Guitar one
D|--------------------------------------------------------------|
A|--------------------------------------------------------------|  
F|---------------------------------------------------------7~---|   
C|----------------------------------------------7-8-7-8-10------|   
G|-----7h9-7h9-------7h9-7h9-------8h10-8h10-10-----------------|
C|--------------------------------------------------------------|  

Guitar two
D|--------------------------------------------------------------|
A|--------------------------------------------------------------|
F|--------------------------------------------------------------|
C|--0~-----------0~------------8~-------------------------------|
G|--0~-----------0~------------8~-------------------------------|
C|--0~-----------0~------------8~-------------------------------|

Guitar one
D|--------------------------------------------------------------|
A|--------------------------------------------------------------|  
F|--7-7-7-7-7-7-7-7-7------------------------------------------|   
C|--------------------------------------------------------------|   
G|--------------------------------------------------------------|
C|--------------------------------------------------------------|  

Guitar two
D|--------------------------------------------------------------|
A|--------------------------------------------------------------|
F|----------------7-7-7-7-7-7-7-7-------------------------------|
C|--8-8-8-8-8-8-8-7-7-7-7-7-7-7-7-------------------------------|
G|--8-8-8-8-8-8-8-5-5-5-5-5-5-5-5-------------------------------|
C|--8-8-8-8-8-8-8-----------------------------------------------|

Both
D|---------|
A|---------|  
F|---------|   
C|---------|   
G|--0--0---|
C|--0--0---| 
    .  .

CHORUS:
D|--------------------------------------------------------------|
A|--------------------------------------------------------------|
F|--------------------------------------------------------------|
C|--7\---------7\-7\-----------------33333333333335555555555555-|
G|--5\-0000000-5\-5\-000000000000000-11111111111113333333333333-|
C|-----0000000-------000000000000000----------------------------|
       .......       ...............
    
D|----------------------------------------------------------------|
A|----------------------------------------------------------------|
F|----------------------------------------------------------------|
C|--7\---------7\-7\-----------------555555555555555555555333222--|
G|--5\-0000000-5\-5\-000000000000000-333333333333355555555333222--|
C|-----0000000-------000000000000000--------------55555555333222--|
       .......       ...............

D|--------------------------------------------------------------|
A|--------------------------------------------------------------|
F|--------------------------------------------------------------|
C|--10\--------10\10\----------------33333333333335555555555555-|
G|--8\-0000000-8\-8\-000000000000000-11111111111113333333333333-|
C|-----0000000-------000000000000000----------------------------|
       .......       ...............

D|----------------------------------------------------------------|
A|----------------------------------------------------------------|
F|----------------------------------------------------------------|
C|--10\--------10\10\----------------555555555555555555555555-----|
G|--8\-0000000-8\-8\-000000000000000-333333333333355555555555-----|
C|-----0000000-------000000000000000--------------55555555555-----|
       .......       ...............   
                     
D|-------------------------------------------------------------------------|
A|-------------------------------------------------------------------------|
F|-------------------------------------------------------------------------|
C|--3333333333333555555555555-77777777777555555555533333333333555555555555-|
G|--1111111111111333333333333-55555555555333333333311111111111333333333333-|
C|-------------------------------------------------------------------------|

D|----------------------------------|
A|----------------------------------|
F|----------------------------------|
C|----------------------------------|
G|-00-0-000000-00-0-000000-00-0-00--|X4
C|-00-0-000000-00-0-000000-00-0-00--|
   .. . ...... .. . ...... .. . .. 

OUTRO:
D|--------------------------------------------------------------|
A|--------------------------------------------------------------|
F|--------------------------------------------------------------|
C|--------------------------------------------------------------|
G|--00-00-000000-000000-00---00-00-000000-000000----------------|FADES OUT
C|--00-00-000000-000000-00---00-00-000000-000000-3b-------------|
    .. .. ...... ...... ..   .. .. ...... ......
comments
We did not receive enough feedback on this tab! Please rate:
print report bad tab
1 2 3 4 5
I want to post or [tab]
guest
You may want to rate the tab now too:
select rating
Please do not post tabs as comments. Select "correction" instead!