Oops, an error
Loading. Please wait.

The Hampton Roads Fourth Annual Parade Of The Blind Tab

178 views 1 this week
no commentswrite comment
1 2 3 4 5
please rate
add to favorites launch autoscroll
font size
0
reset
Autoscroll
+/-
esc
set tempo
stop
Contributor
Difficulty
Tuning
intermediate
C G C F A D
WARNING: You are trying to view
                                    content from Ultimate-Guitar.com
                                    in an unauthorized application,
                                    which is prohibited.

                                    Please use an official Ultimate
                                    Guitar Tabs application for iPhone,
                                    iPad or Android to access legitimate
                                    chords, guitar, bass, and drum tabs
                                    from Ultimate-Guitar.com database.

                                    Type "ultimate guitar tabs" in Apple
                                    App Store's or Android Market's
                                    search to find the application.
INTRO:
d|---------------------------------------------------|
A|---------------------------------------------------|
F|---------------------------------------------------|
C|---------------------------------------------------|
D|---------------------------------\\pickscrape\\----|
C|--00000000000000000000000000000--\\pickscrape\\----|
pm. .............................

VERSE: (second time, the first five is a harmonic)
d|---------------------------------------------------|
A|---------------------------------------------------|
F|---------------------------------------------------|

C|---------------------------------------------------|x3
D|------5----8p7---10----10p8---8----8h10---5---8p5--|
C|--000----0-----0-----0------0----0------0---0------|
pm. ...    .     .     .      .    .      .   .

d|-----------------------------------------------------|
A|-----------------------------------------------------|
F|-----------------------------------------------------|
C|-----------------------------------------------------|
D|------5----8p7---10----10p8---8----8h10---8p5---8p5--|
C|--000----0-----0-----0------0----0------0-----0------|
    ...    .     .     .      .    .      .     .

PRE-CHORUS
d|---------------------------------------------------------------------------|
A|---------------------------------------------------------------------------|
F|---------------------------------------------------------------------------|
C|---------------------------------------------------------------------------|
D|------------------------------------------------------555555-5---7---5h8p5-|
C|888888888777777777555555555555555588888888887777777777---------0---0-------|
pm............................................................   .   .

CHORUS:
d|----------------------------------------------------------------------|
A|----------------------------------------------------------------------|
F|----------------------------------------------------------------------|
C|-------------------------------------------------8-8888-10-10101010---|
D|-0--7-8-0-5-0-3--0--7-8-0-5-0-3--0--7-8-0-5-0-3--8-8888-8--8-8-8-8----|X2
C|-0--7-8-0-5-0-3--0--7-8-0-5-0-3--0--7-8-0-5-0-3--8-8888-8--8-8-8-8----|

d|----------------------------|
A|----------------------------|
F|----------------------------|
C|--10-10101010-12-12121212---|
D|--10-10101010-10-10101010---|
C|--10-10101010-10-10101010---|


VERSE: (second time, the first five is a harmonic)
d|---------------------------------------------------|
A|---------------------------------------------------|
F|---------------------------------------------------|
C|---------------------------------------------------|x3
D|------5----8p7---10----10p8---8----8h10---5---8p5--|
C|--000----0-----0-----0------0----0------0---0------|
pm.....    .     .     .      .    .      .   .

d|-----------------------------------------------------|
A|-----------------------------------------------------|
F|-----------------------------------------------------|
C|-----------------------------------------------------|
D|------5----8p7---10----10p8---8----8h10---8p5---8p5--|
C|--000----0-----0-----0------0----0------0-----0------|
pm.....    .     .     .      .    .      .     .

PRE-CHORUS
d|---------------------------------------------------------------------------|
A|---------------------------------------------------------------------------|
F|---------------------------------------------------------------------------|
C|---------------------------------------------------------------------------|
D|------------------------------------------------------555555-5---7---5h8p5-|
C|888888888777777777555555555555555588888888887777777777---------0---0-------|
pm............................................................   .   .

INTERLUDE
d|---------------------------------------------------------------------------|
A|---------------------------------------------------------------------------|
F|---------------------------------------------------------------------------|
C|--8~-----3-----------------------------------------------------------------|
D|--8~-----3-----------0~--0-0-0----5---3---3h5--0~--0-0-0----5---3---3h5----|
C|--8~-----3----5b-----0~--0-0-0--0---0---0------0~--0-0-0--0---0---0--------|
pm.                               .   .   .                 .   .   .
  
d|---------------------------------------------------------------------------|
A|---------------------------------------------------------------------------|
F|---------------------------------------------------------------------------|
C|-8-8-8-8-8-8--------5-5-5-5-5-5-5-5----------------------------------------|
D|-8-8-8-8-8-8-7h8h10-5-5-5-5-5-5-5-5---0~--0-0-0----5---3---3h5-------------|
C|-8-8-8-8-8-8--------5-5-5-5-5-5-5-5---0~--0-0-0--0---0---0-----------------|
pm.                                                .   .   .  

d|----------------------------------------------------------------------|
A|----------------------------------------------------------------------|
F|----------------------------------------------------------------------|
C|----------------------------8-8-8-8-8-8--------5-5-5-5-5-5------------|
D|-0~--0-0-0----5---3---3h5---8-8-8-8-8-8-7h8h10-5-5-5-5-5-5--5h8p5-----|
C|-0~--0-0-0--0---0---0-------8-8-8-8-8-8--------5-5-5-5-5-5------------|
pm.           .   .   .    

d|---------------------------------------|
A|---------------------------------------|
F|---------------------------------------|
C|-8-8-8-8-8-8--------5-5-5-5-5-5-5-5----|
D|-8-8-8-8-8-8-7h8h10-5-5-5-5-5-5-5-5----|
C|-8-8-8-8-8-8--------5-5-5-5-5-5-5-5----|

BRIDGE:
guitar one
d|---------------------------------------------------------------------------|
A|---------------------------------------------------------------------------|
F|---------------------------------------------------------------------------|
C|-------------------------5h8p5-5h8p5-5h8p5-5h8p5-2h5p2-2h5p2-2h5p2-2h5p2---|
D|-5h8p5-5h8p5-5h8p5-5h8p5---------------------------------------------------|
C|---------------------------------------------------------------------------|

d|----------------------------------------------------------------------------|
A|----------------------------------------------------------------------------|
F|----------------------------------------------------------------------------|
C|-7h10p7-7h10p7-7h10p7-7h10p7-------------------------5h8p5-5h8p5-5h8p5-5h8p5|
D|-----------------------------5h8p5-5h8p5-5h8p5-5h8p5------------------------|
C|----------------------------------------------------------------------------|

d|---------------------------------------------------------------------------|
A|---------------------------------------------------------------------------|
F|---------------------------------------------------------------------------|
C|-2h5p2-2h5p2-2h5p2-2h5p2-7h10p7-7h10p7-10p8p7------------------------------|
D|---------------------------------------------10p8p7-5h8p5-5h8p5-5h8p5-5h8p5|
C|---------------------------------------------------------------------------|

d|---------------------------------------------------------------------------|
A|---------------------------------------------------------------------------|
F|---------------------------------------------------------------------------|
C|-5h8p5-5h8p5-5h8p5-5h8p5-2h5p2-2h5p2-2h5p2-2h5p2-7h10p7-7h10p7-10p8p7------|
D|---------------------------------------------------------------------10p8p7|
C|---------------------------------------------------------------------------|

guitar two
d|----------------------------------------------------------------------|
A|----------------------------------------------------------------------|
F|----------------------------------------------------------------------|
C|-0~-------------------------------------------------------------------|
D|-0~----------------------------------------------0----------333222----|
C|-0~----------------------------------------------0----------333222----|
pm.                                                .          ...... 

d|---------------------------------------------------------------|
A|---------------------------------------------------------------|
F|---------------------------------------------------------------|
C|---------------------------------------------------------------|
D|-0---0---0---0---0-0-0---0--00-0--2--0-0-22223---33222---------|x2
C|-0---0---0---0---0-0-0---0--00-0--2--0-0-22223---33222---------|
pm..   .   .   .   . . .   .  .. .     . . .....   .....

BREAKDOWN
d|---------------------------------------------------------------------------|
A|---------------------------------------------------------------------------|
F|--------------------------------12\--------------------------------12\-----|
C|--------------------------------10\--------------------------------10\-----|
D|-0000--00--0-0-0~---00--00--0-0-----0000--00--0-0-0~---00--00--0-0---------|
C|-0000--00--0-0-0~---00--00--0-0-----0000--00--0-0-0~---00--00--0-0---------|
pm.....  ..  . . .    ..  ..  . .     ....  ..  . . .    ..  ..  . .

d|---------------------------------------------------------------------------|
A|---------------------------------------------------------------------------|
F|--------------------------------12\--------------------------------12\-----|
C|--------------------------------10\--------------------------------10\-----|
D|-0000--00--0-0-0~---00--00--0-0-----0000--00--0-0-0~---00--00--0-0---------|
C|-0000--00--0-0-0~---00--00--0-0-----0000--00--0-0-0~---00--00--0-0---------|
pm.....  ..  . . .    ..  ..  . .     ....  ..  . . .    ..  ..  . .

d|---------------------------------------------------------------------------|
A|---------------------------------------------------------------------------|
F|--------------------------------12\----------------------------------------|
C|--------------------------------10\----------------------------------------|
D|-0000--00--0-0-0~---00--00--0-0-----0000--00--0-0-0~---00--00--0-0-0~------|
C|-0000--00--0-0-0~---00--00--0-0-----0000--00--0-0-0~---00--00--0-0-0~------|
pm.....  ..  . . .    ..  ..  . .     ....  ..  . . .    ..  ..  . . .

BUILD UP:
d|---------------------------------------------------------------------------|
A|---------------------------------------------------------------------------|
F|---------------------------------------------------------------------------|
C|---------------------------------------------------------------------------|
D|-8-8-8-8-8-8-8-8-8-8-8-8-8-8-10-10-10-10-10-10-10-10-10-10-10-10-10-10-10--|
C|-8-8-8-8-8-8-8-8-8-8-8-8-8-8-10-10-10-10-10-10-10-10-10-10-10-10-10-10-10--|
pm.. . . . . . . . . . . . . . . . . . . . . . . . . . . . . . . . . . . .

d|---------------------------------------------------------------------------|
A|---------------------------------------------------------------------------|
F|---------------------------------------------------------------------------|
C|---------------------------------------------------------------------------|
D|-8-8-8-8-8-8-8-8-8-8-8-8-8-8-10-10-10-10-10-10-10-10-10-10-10-10-10-10-10--|
C|-8-8-8-8-8-8-8-8-8-8-8-8-8-8-10-10-10-10-10-10-10-10-10-10-10-10-10-10-10--|

CHORUS:
d|----------------------------------------------------------------------|
A|----------------------------------------------------------------------|
F|----------------------------------------------------------------------|
C|-------------------------------------------------8-8888-10-10101010---|
D|-0--7-8-0-5-0-3--0--7-8-0-5-0-3--0--7-8-0-5-0-3--8-8888-8--8-8-8-8----|X2
C|-0--7-8-0-5-0-3--0--7-8-0-5-0-3--0--7-8-0-5-0-3--8-8888-8--8-8-8-8----|

d|----------------------------------------------------------------------|
A|----------------------------------------------------------------------|
F|----------------------------------------------------------------------|
C|--10-10101010-12-12121212--8-8888-10-10101010-10-10101010-12-12121212-|
D|--10-10101010-10-10101010--8-8888-8--8-8-8-8--10-10101010-10-10101010-|
C|--10-10101010-10-10101010--8-8888-8--8-8-8-8--10-10101010-10-10101010-|

OUTRO:
guitar one
d|-------------------------------|
A|-------------------------------|
F|-------------------------------|
C|--0~------0~------0~-----------|
D|--0~------0~------0~----5b--0--|
C|--0~------0~------0~--------0--|

guitar two
d|-------------------------------|
A|-------------------------------|
F|-------------------------------|
C|--0~------0~------0~----4b-----|
D|--0~------0~------0~--------0--|
C|--0~------0~------0~--------0--|

ENJOY!
comments
We did not receive enough feedback on this tab! Please rate:
print report bad tab
1 2 3 4 5
I want to post or [tab]
guest
You may want to rate the tab now too:
select rating
Please do not post tabs as comments. Select "correction" instead!