Oops, an error
Loading. Please wait.

Fubb Tab

2,509 views 9 this week
no commentswrite comment
1 2 3 4 5
excellent!
x 2
Autoscroll
+/-
esc
set tempo
stop
Contributor
WARNING: You are trying to view
                                    content from Ultimate-Guitar.com
                                    in an unauthorized application,
                                    which is prohibited.

                                    Please use an official Ultimate
                                    Guitar Tabs application for iPhone,
                                    iPad or Android to access legitimate
                                    chords, guitar, bass, and drum tabs
                                    from Ultimate-Guitar.com database.

                                    Type "ultimate guitar tabs" in Apple
                                    App Store's or Android Market's
                                    search to find the application.
Wishbone Ash – F.U.B.B.
Album “There’s the rub”
1974 - MCA Records
Tabbed by Bas Willemsen, bwillemsen@click2c.net

May 4, 2006: I just found this tab I made of FUBB 2 years ago. It isn't finished and 
a few errors but since it's the first tab of FUBB on the web, it might help some people.
Enjoy.

~= vibrato
h= hammer-on
p= pull-off
/= slide up
= slide down
\= tremolo bar down

|-------------------------------------------------------------------|
|-------------------------------------------------------------------|
|-------------------------------------------------------------------|
|-------------------------------------------------------------------|
|-------------------------------------------------------------------|
|-------------------------------------------------------------------|
|
|(use volume knob)
|-------------------------------------------------------------------|
|-------------------------------------------------------------------|
|--12---------------------------------------------------------------|
|-------------------------------------------------------------------|
|-------------------------------------------------------------------|
|-------------------------------------------------------------------|

 Riff 1 – repeat once
|-------------------------------------------------------------------|
|-------------------------------------------------------------------|
|-------------------------------------------------------------------|
|-------------------------------------------------------------------|
|-------------------------------------------------------------------|
|-------------------------------------------------------------------|
|
|
|--6-5-----5-3-----1--------------6-5----5-3----1-------------------|
|------6~------3~ ---3-1---1-3~-------6~-----3~ --3-1---1-----------|
|------------------------3----------------------------3---0---------|
|-------------------------------------------------------------------|
|-------------------------------------------------------------------|
|-------------------------------------------------------------------|

|-------------------------------------------------------------------|
|-------------------------------------------------------------------|
|-------------------------------------------------------------------|
|-------------------------------------------------------------------|
|-------------------------------------------------------------------|
|-------------------------------------------------------------------|
|
|
|------------------8-8---8-8---11-11----------13-12-11----------------|
|------------------8-8---8-8---11-11---15-15--13-12-11-13-13-15-------|
|--3\---3-3\---5-5---5-5---10-10---12-12-----------12-12-14-----------|
|--5\---5-5\---5-5---5-5----------------------------------------------|
|--5\---5-5\----------------------------------------------------------|
|--3\---3-3\----------------------------------------------------------|


|-------------------------------------------------------------------|
|-------------------------------------------------------------------|
|-------------------------------------------------------------------|
|-------------------------------------------------------------------|
|-------------------------------------------------------------------|
|-------------------------------------------------------------------|
|
|
|--------13-12-11-----------------------------------------------------|
|15-15---13-12-11-13-13-15---15------13-11-13---16-15-14-11-11-13-----|
|12-12------------12-12-14-----1412-12-10-12---15-14-13-10-10-12------|
|---------------------------------------------------------------------|
|---------------------------------------------------------------------|
|---------------------------------------------------------------------|


|-------------------------------------------------------------------|
|-------------------------------------------------------------------|
|-------------------------------------------------------------------|
|-------------------------------------------------------------------|
|-------------------------------------------------------------------|
|-------------------------------------------------------------------|
|
|
|-----------------------9-12-16-20~---8-8-----------------------------|
|-------8-6-8---11-10-9---------------8-8---11-13-15-13---------------|
|127-7-7-5-7---10-9--8---------------5-5---10-12-14-12----------------|
|-------------------------------------5-5-----------------------------|
|---------------------------------------------------------------------|
|---------------------------------------------------------------------|


|-------------------------------------------------------------------|
|-------------------------------------------------------------------|
|--------------3-3--------------------------------------------------|
|--------------5-5------------2---------------------2---------------|
|--------------5-5------------------------------------3~------------|
|--------------3-3--------------------------------------------------|
|
|
|--------------------15---------------------------------------------|
|11-13-16-15--------------------------------------------------------|
|10-12-15-14---------12---------------------------------------------|
|-----------------------5-5-----------------------------5--8-5------|
|-----------------------5-5-----------------------------5--8-5------|
|-----------------------3-3---3h6p3h6p3h6p3h6p3h6p3-----3--6-3------|


|-------------------------------------------------------------------|
|-------------------------------------------------------------------|
|---??--------------------------------------------------------------|
|-------------------------------------------------------------------|
|-------------------------------------------------------------------|
|-------------------------------------------------------------------|
|
|---------------------------------------------------------------------|
|----------------------------8----------------------------------------|
|----------------------------7----------------------------------------|
|------53-----5-3p0-5-----3-5--53-5~----------------------------------|
|----------3/5---------3/5--------------------------------------------|
|---------------------------------------------------------------------|

3:17
|-------------------------------------------------------------------|
|---------------------------------------10-11-10~-------------------|
|---------------10-9-10-12--9-10-12--12-----------------------------|
|---------10-12-----------------------------------------------------|
|10-12-13-----------------------------------------------------------|
|-------------------------------------------------------------------|
|
|-------------------------------------------------------------------|
|-------------------------------------------------------------------|
|-------------------------------------------------------------------|
|-------------------------------------------------------------------|
|-------------------------------------------------------------------|
|-------------------------------------------------------------------|

|-------------------------------------------------------------------|
|---10-11-10--------------------------------------------------------|
|12----------12-10-----------------10-------------------------------|
|------------------12-----10-12-13----13-12-10-10-12----------------|
|---------------------13~----------------------------13~------------|
|-------------------------------------------------------------------|
|
|-------------------------------------------------------------------|
|-------------------------------------------------------------------|
|-------------------------------------------------------------------|
|-------------------------------------------------------------------|
|-------------------------------------------------------------------|
|-------------------------------------------------------------------|
|


|---------------13-12-13-15--12-13-15--15-17-18-17h18p17~-----------|
|---------13-15-----------------------------------------------------|
|12-14-15-----------------------------------------------------------|
|-------------------------------------------------------------------|
|-------------------------------------------------------------------|
|-------------------------------------------------------------------|
|
|-------------------------------------------------------------------|
|-------------------------------------------------------------------|
|-------------------------------------------------------------------|
|-------------------------------------------------------------------|
|-------------------------------------------------------------------|
|-------------------------------------------------------------------|
|


|15-17-18-17-15-13-13b14r13--------------------13---------------------|
|-------------------------------151413-15-16----16-15-13-13-15--------|
|---------------------------15-----------------------------------15---|
|---------------------------------------------------------------------|
|---------------------------------------------------------------------|
|---------------------------------------------------------------------|
|
|-------------------------------------------------------------------|
|-------------------------------------------------------------------|
|-------------------------------------------------------------------|
|-------------------------------------------------------------------|
|-------------------------------------------------------------------|
|-------------------------------------------------------------------|


4:05
|---------------------------------------------------------------------|
|---------------------------------------------------------------------|
|---------------------------------------------------------------------|
|----------5-3-5-3-1--5-3-5-3-1---------------------------------------|
|----------5-3-5-3-1--5-3-5-3-1---------------------------------------|
|/6-/6-5-4-3-1-3-1----3-1-3-1-----------------------------------------|
|
|-------------------------------------------------------------------|
|-------------------------------------------------------------------|
|-------------------------------------------------------------------|
|-------------------------------------------------------------------|
|-------------------------------------------------------------------|
|-------------------------------------------------------------------|


4:20 Guitar 1 plays this four times


|---------------------------------------------------------------------|
|---------------------5-----7--6-5-------5~---------------------------|
|---------------7-24---4h6--------7-5-7----5-5h7p5-3------------------|
|---5-5-5-5-57--------------------------------------------------------|
|---------------------------------------------------------------------|
|---------------------------------------------------------------------|
|
| Guitar 2 joins in after 2 times, plays this twice
|-------------------------------------------------------------------|
|-------------------------------------------------------------------|
|-------------------------------------------------------------------|
|-------------------------------------------------------------------|
|-------------------------------------------------------------------|
|-------------------------------------------------------------------|


4:49
|-------------------------------------------------------------------|
|-------------------------------------------------------------------|
|-------------------------------------------------------------------|
|3-2-------3--------------3-2-------3-------------------------------|
|----5-3-5---3-5-3h5p3-1------5-3-5---3h5p3-3-1-1-------------------|
|-------------------------------------------------------------------|
|
|-------------------------------------------------------------------|
|-------------------------------------------------------------------|
|10-9----------10-------------------10-9----------10----------------|
|-----12-10-12----10-12-10h12p10-8-------12-10-12----10h12p10-10-8-8|
|-------------------------------------------------------------------|
|-------------------------------------------------------------------|


|---------------------------------------------------------------------------|
|---------------------------------------------------------------------------|
|------2--------------------------------------------------------------------|
|0-2-3---3-2-0---0----0-2-3-5-75~-------------------------------------------|
|--------------3---1--------------------------------------------------------|
|---------------------------------------------------------------------------|
|
|---------------------------------------------------------------------------|
|--------10----------------------------108~---------------------------------|
|---9-10----10-9---------------9-10-12--------------------------------------|
|12--------------12-10-12-8-12----------------------------------------------|
|---------------------------------------------------------------------------|
|---------------------------------------------------------------------------|


|-------------------------------------------------------------------------|
|-----17--------------------------------------------------17--------------|
|16b8----16b18-18r16-14-16-18r16-14-16-12~--16b8----16b18----16b18 18r16--|
|-------------------------------------------------------------------------|
|-------------------------------------------------------------------------|
|-------------------------------------------------------------------------|
|
|-------------------------------------------------------------------------|
|-------------------------------------------------------------------------|
|-------------------------------------------------------------------------|
|-------------------------------------------------------------------------|
|-------------------------------------------------------------------------|
|-------------------------------------------------------------------------|


|-------------------------------------------------------------------------|
|-------------------------------------------------------------------------|
|14-16-14 18r16-14-16-12~--16-14-16-12~-16-14-16-18~----------------------|
|-------------------------------------------------------------------------|
|-------------------------------------------------------------------------|
|-------------------------------------------------------------------------|
|
|-------------------------------------------------------------------------|
|-------------------------------------------------------------------------|
|-------------------------------------------------------------------------|
|-------------------------------------------------------------------------|
|-------------------------------------------------------------------------|
|-------------------------------------------------------------------------|

6:00
repeat once
|-------------------------------------------------------------------------|
|-------------------------------------------------------------------------|
|10-9--------------------------10-9---------------------------------------|
|-----12-10-12-10-12-8-10-6-8-------12-10-12-10-12-8-10-6-----------------|
|-------------------------------------------------------------------------|
|-------------------------------------------------------------------------|
|
|-------------------------------------------------------------------------|
|-------------------------------------------------------------------------|
|-------------------------------------------------------------------------|
|-------------------------------------------------------------------------|
|-------------------------------------------------------------------------|
|-------------------------------------------------------------------------|


|-------------------------------------------------------------------------|
|-------------------------------------------------------------------------|
|12-10--------------------------------------------------------------------|
|------12-10-12-10-10-12-10-8~--------------------------------------------|
|-------------------------------------------------------------------------|
|-------------------------------------------------------------------------|
|
|-------------------------------------------------------------------------|
|-------------------------------------------------------------------------|
|-------------------------------------------------------------------------|
|-------------------------------------------------------------------------|
|-------------------------------------------------------------------------|
|-------------------------------------------------------------------------|

6:11

|13b15-13b15--13b15-13b15-------------------------------------------------|
|-------------------------------------------------------------------------|
|-------------------------------------------------------------------------|
|-------------------------------------------------------------------------|
|-------------------------------------------------------------------------|
|-------------------------------------------------------------------------|
|
|-------------------------------------------------------------------------|
|-------------------------------------------------------------------------|
|-------------------------------------------------------------------------|
|-------------------------------------------------------------------------|
|-------------------------------------------------------------------------|
|-------------------------------------------------------------------------|


6:19 **solo 1**
|-----13--------------------------------------------------------------------|
|14~----14-11~--11-------11----11-13-11-11-13-11-11-------------------------|
|-------------------12-14----14----------------------12---------------------|
|---------------------------------------------------------------------------|
|---------------------------------------------------------------------------|
|---------------------------------------------------------------------------|
|
|-------------------------------------------------------------------------|
|-------------------------------------------------------------------------|
|-------------------------------------------------------------------------|
|-------------------------------------------------------------------------|
|-------------------------------------------------------------------------|
|-------------------------------------------------------------------------|


|---12----12-13b15-13b15-13b15----12-13b15----12-13b15--------------------|
|14----14----------------------14----------14-----------------------------|
|-------------------------------------------------------------------------|
|-------------------------------------------------------------------------|
|-------------------------------------------------------------------------|
|-------------------------------------------------------------------------|
|
|-------------------------------------------------------------------------|
|-------------------------------------------------------------------------|
|-------------------------------------------------------------------------|
|-------------------------------------------------------------------------|
|-------------------------------------------------------------------------|
|-------------------------------------------------------------------------|


|---12-13b15----12-13-12-14-12--------------------------------------------|
|14----------14-----------------------------------------------------------|
|-------------------------------------------------------------------------|
|-------------------------------------------------------------------------|
|-------------------------------------------------------------------------|
|-------------------------------------------------------------------------|
|
|-------------------------------------------------------------------------|
|-------------------------------------------------------------------------|
|-------------------------------------------------------------------------|
|-------------------------------------------------------------------------|
|-------------------------------------------------------------------------|
|-------------------------------------------------------------------------|
comments
We did not receive enough feedback on this tab! Please rate:
1 2 3 4 5
I want to post or [tab]
guest
You may want to rate the tab now too:
select rating
Please do not post tabs as comments. Select "correction" instead!