Oops, an error
Loading. Please wait.

Handy Tab

1,070 views 3 this week
1 commentread comment
1 2 3 4 5
excellent!
x 2
Autoscroll
+/-
esc
set tempo
stop
Contributor
Difficulty
intermediate
Hey! There's an official Ultimate Guitar app which is ideal
for learning songs when you're away from computer. Get the app
WARNING: You are trying to view
                                    content from Ultimate-Guitar.com
                                    in an unauthorized application,
                                    which is prohibited.

                                    Please use an official Ultimate
                                    Guitar Tabs application for iPhone,
                                    iPad or Android to access legitimate
                                    chords, guitar, bass, and drum tabs
                                    from Ultimate-Guitar.com database.

                                    Type "ultimate guitar tabs" in Apple
                                    App Store's or Android Market's
                                    search to find the application.
Band - Wishbone Ash
Song - Handy
From - Wishbone Ash

Guitar 1 = Is Right
Guitar 2 = Need Some Work, Hard to Hear
Solo     = Is Right

rbp = Release Bend Pull Off
brp = Bend Release Pull Off
  h = Hammer On 
  p = Pull Off
  s = Slide
  x = Rake
 rb = Reverse Bend
 br = Bend Reverse

Guitar 1
01:40
[------------------------------------|-------------------------------------]
[-10---10--12--13--12--10------------|-------------------------------------]
[--------------------------12-10-9---|-------------------------------------]
[------------------------------------|-------------------------------------]
[------------------------------------|-------------------------------------]
[------------------------------------|-------------------------------------]
|                                                                          |
Guitar 2                                                                   |
[------------------------------------|-------------------------------------]
[------------------------------------|--6--5-------------------------------]
[------------------------------------|--------7--5----s---------------s----]
[------------------------------------|--------------7-\-5--3-----3--5-\-7--]
[------------------------------------|------------------------5------------]
[------------------------------------|-------------------------------------]


Guitar 1
[----------------------------|---------------------------------------------]
[----------------------------|---------------------------------------------]
[--9--10--12--10--9----------|---------------------------------------------]
[--------------------10--12--|---------------------------------------------]
[----------------------------|---------------------------------------------]
[----------------------------|---------------------------------------------]
|                                                                          |
Guitar 2                                                                   |
[-----------------------------|--------------------------------------------]
[-----------------------------|--------------------------------------------]
[-----------------------------|------------s---5--7---5--------------------]
[-----------------------------|---h---3--5-\-7------7----------------------]
[-----------------------------|--3-5---------------------------------------]
[-----------------------------|--------------------------------------------]


Guitar 1
[------------------------------|--10--12--13--12--10-----------------------]
[--------------10--12--13-13---|----------------------13--12--10-----------]
[----h---10-12-----------------|-------------------------------------------]
[--10-12-----------------------|-------------------------------------------]
[------------------------------|-------------------------------------------]
[------------------------------|-------------------------------------------]
|                                                                          |
Guitar 2                                                                   |
[----------------------------------------|-5-------------------------------]
[--------------------------8--6--5-------|----8--6--5----------8--6--5-----]
[-----------------------------------7--5-|-------------7---------------7--5]
[----------------------------------------|---------------------------------]
[----------------------------------------|---------------------------------]
[----------------------------------------|---------------------------------]


Guitar 1
02:04
[---------------------------------------------------------------10--12--13-]
[--10--12--13----12--10-----------h------------------10--12--13------------]
[------------------------12--10--9-10--12---------12-----------------------]
[--------------------------------------------------------------------------]
[--------------------------------------------------------------------------]
[--------------------------------------------------------------------------]
|                                                                          |
Guitar 2                                                                   |
[----------7--5------------------------------------------------------------]
[----------------8--6--5----------------------------------------8--10------]
[------------------------------------------------s---5-------7-------------]
[----------------------------------------h--3--5-\-7----7------------------]
[---------------------------------------3-5--------------------------------]
[--------------------------------------------------------------------------]


Guitar 1
        p                                     h      p
[-15--13-12--10---------------------15--13--12-13--12-10-------------------]
[--------------------------------------------------------10----------------]
[--------------------------------------------------------------------------]
[--------------------------------------------------------------------------]
[--------------------------------------------------------------------------]
[--------------------------------------------------------------------------]
|                                                                          |
Guitar 2                                                                   |
[-----------------rb-------------------------------------------------------]
[-----------------8--6-----------------------------------------------------]
[-----------------------(7)-(5)-(7)----------------------------------------]
[--------------------------------------------------------------------------]
[--------------------------------------------------------------------------]
[--------------------------------------------------------------------------]


Guitar 1
02:21
[-------------10-------h---10----------------17-17-17-13-----15-15-17-12---]
[--10--12--13----13--12-13-------------------------------15--------------14]
[--------------------------------------------------------------------------]
[--------------------------------------------------------------------------]
[--------------------------------------------------------------------------]
[--------------------------------------------------------------------------]
|                                                                          |
Guitar 2                                                                   |
[-------------------------------------------|-5--5--5----------------------]
[---------------------------8--6------h-----|---------6------8--8--8--5----]
[---------------------------------7--5-7--7-|------------7---------------5-]
[-------------------------------------------|------------------------------]
[-------------------------------------------|------------------------------]
[-------------------------------------------|------------------------------]


Guitar 1
[--17-17-17-13-----15-15-17-12-----17-17-17-13-----15-15-17-12-------------]
[--------------15--------------14--------------15--------------14----------]
[--------------------------------------------------------------------------]
[--------------------------------------------------------------------------]
[--------------------------------------------------------------------------]
[--------------------------------------------------------------------------]
|                                                                          |
Guitar 2                                                                   |
[--5--5--5--------------------------5--5--5---------5--8--10-|-5--8--10----]
[-----------6------8--8--8--5----------------6---------------|-------------]
[--------------7---------------5----------------7------------|-------------]
[------------------------------------------------------------|-------------]
[------------------------------------------------------------|-------------]
[------------------------------------------------------------|-------------]


Guitar 1
[---------------------|----------------------------------------------------]
[--12--10-------------|----------------------------------------------------]
[----------12--10--9--|------------------------------------9--10--12--10---]
[---------------------|--------------------------------------------------12]
[---------------------|----------------------------------------------------]
[---------------------|----------------------------------------------------]
|                                                                          |
Guitar 2                                                                   |
[-5--8--10-|-5--8--10-|-5--8--10-|-5--8--10-|-5--8--10-|-5--8--------------]
[----------|----------|----------|----------|----------|-------------------]
[----------|----------|----------|----------|----------|-------------------]
[----------|----------|----------|----------|----------|-------------------]
[----------|----------|----------|----------|----------|-------------------]
[----------|----------|----------|----------|----------|-------------------]


Guitar 1
02:47
[----------------------------|-------------------|-------------------------]
[------------------------10--|--12--10--12---10--|--13--12--10--12--12---10]
[-----------------10--12-----|-------------------|-------------------------]
[-----s----10--12------------|-------------------|-------------------------]
[--10-\-12-------------------|-------------------|-------------------------]
[----------------------------|-------------------|-------------------------]
|                                                                          |
Guitar 2                                                                   |
[--------------------------------------------------------------------------]
[--------------------------------------------------------------------------]
[---Ad---------------------------5--7--7----------7--5---s-----------------]
[------Lib---------------------7-----------------------7-\-5--3------------]
[--------------------------------------------------------------------------]
[--------------------------------------------------------------------------]


Guitar 1
[--13--12--10-----------------------|--15--12------------|----p--p---------]
[--------------13--12--10--12---10--|---------13---------|--13-12-10-------]
[-----------------------------------|------------14--10--|-----------12--10]
[-----------------------------------|--------------------|-----------------]
[-----------------------------------|--------------------|-----------------]
[-----------------------------------|--------------------|-----------------]
|                                                                          |
Guitar 2                                                                   |
[--------------------------------------------------------------------------]
[-------------------------------s------------------------------------------]
[--------------------------7--5-\-3------------h---------------------------]
[-----------------------------------5-----h---3-5--3----h------------------]
[----------------------------------------3-5-----------3-5-------h---------]
[---------------------------------------------------------------3-5--------]


Guitar 1        03:05
[--------|--------------12--10---------------------------------------------]
[-9----9-|-----------10---------13--10-------------------------------------]
[---12---|--------10--------------------13--12--10----10--9----------------]
[--------|-----------------------------------------12-------12-------------]
[--------|-----------------------------------------------------------------]
[--------|-----------------------------------------------------------------]
|                                                                          |
Guitar 2                                                                   |
[--------------------------------------------------------------------------]
[--------------------------------------------------------------------------]
[-----------------------------------------Ad Lib---------------------------]
[--------------------------------------------------------------------------]
[-------------h---3--------------------------------------------------------]
[------------3-5-----------------------------------------------------------]


Guitar 1
03:10
[--------------------------------------------------------------------------]
[--------------------------------------------------------------------------]
[-----12--10---9----------------------------------------------------------9]
[--12-------------12--10----s-----------------------s----10--12----10--12--]
[------------------------12-\10--8------------8--10-\-12--------12---------]
[----------------------------------10--8--10-------------------------------]
|                                                                          |
Guitar 2                                                                   |
[--------------------------------------------------------------------------]
[--------------------------------------------------------------------------]
[--------------------------------------------------------------------------]
[---------------------------------------------5------------5---------------]
[-----------------------------------------------5--3---------5--3----------]
[--------------------------------------------------------------------------]


Guitar 1
[------------|--------------------|---------10-------------|---------------]
[------------|--------------------|--10--13----10--13--10--|---s--------s--]
[------------|--------------------|------------------------|-12\10----10\9-]
[--12----10--|-----s----10--12~~~-|------------------------|-------12------]
[-----12-----|--10-\-12-----------|------------------------|---------------]
[------------|--------------------|------------------------|---------------]
|                                                                          |
Guitar 2                                                                   |
[--------------------------------------------------------------------------]
[--------------------------------------------------------------------------]
[--------------------------------------------s-------------------5--7-----5]
[---------------------------------------3--5-\-7------------5--7-------7---]
[--------------------------------------------------------------------------]
[--------------------------------------------------------------------------]


Guitar 1
03:24
[---trill-----|----------------------------------------------|-------------]
[--10----13---|----------------------------------------------|-------------]
[-------------|--------b---b---b---b hold--------------------|-------------]
[-------------|-------15--15--15--15------15--14--15--12-12--|-------------]
[-------------|----------------------------------------------|-------------]
[-------------|----------------------------------------------|-------------]
|                                                                          |
|                                                                          |
Guitar 2                                                                   |
[--------------|----------------------------------------------|------------]
[--------------|--------b--b----b---b hold--------------------|------------]
[--------------|----5--7---7---7---7-------7---5---7----------|------------]
[--7--7--------|-7-------------------------------------7---7--|------------]
[--------------|----------------------------------------------|------------]
[--------------|----------------------------------------------|------------]
  
                                                                        
Guitar 1
[-------------------------------------------------|------------------------]
[-------------------------------------------------|------------------------]
[-----------b---b---b---b hold--------------------|------------------------]
[--12--14--15--15--15--15------15--14--15--12-12--|----h---10--12-10-12----]
[-------------------------------------------------|--10-12-----------------]
[-------------------------------------------------|------------------------]
|                                                                          |
Guitar 2                                                                   |
[-------------------------------------------------|-------------------8----]
[-----------b---b---b---b hold--------------------|------------------------]
[-------5---7---7---7---7-------7---5---7---------|------------------------]
[---7---------------------------------------7---7-|------------------------]
[-------------------------------------------------|------------------------]
[-------------------------------------------------|------------------------]
                                                        

Guitar 1                                 03:49
[-------------------------------|-----------rb-----------b--rb-------------]
[--13--10-----------------------|----------15---13--15--15--13-------------]
[----------10-------------------|------------------------------14----------]
[-------------12--10------------|------------------------------------------]
[--------------------12--10--8--|------------------------------------------]
[-------------------------------|------------------------------------------]
|                                                                          |
Guitar 2                                                                   |
[------------------|-----------------|----------------------|--------------]
[----6--5--6--8--6-|---6--5--6--8--6-|---6--5--6--8--6------|--------------]
[-7----------------|-7---------------|-7---------------7--5-|----5---------]
[------------------|-----------------|----------------------|--7---7--5--7-]
[------------------|-----------------|----------------------|--------------]
[------------------|-----------------|----------------------|--------------]


Guitar 1
[---------------------------------------|-----13--12----|--13--12----------]
[--10-----------h---------------12--13--|--10--------10-|---------10-------]
[------12--10--9-10--12-12--14----------|---------------|------------------]
[---------------------------------------|---------------|------------------]
[---------------------------------------|---------------|------------------]
[---------------------------------------|---------------|------------------]
|                                                                          |
Guitar 2                         Rake                                      |
[-------------------------------|---5--7--8--10-|--------------------------]
[6-8-6--6---5-------------------|--5------------|--8--6----6---------------]
[---------7----7--5--7--7--5--7-|-5-------------|-------7----7--5--7-------]
[-------------------------------|---------------|--------------------------]
[-------------------------------|---------------|--------------------------]
[-------------------------------|---------------|--------------------------]


Guitar 1
[-------------------10--|------------rb------------]-----------------------]
[----------------10-----|----13--15--15--13--15-15-]-----------------------]
[--12--10--9--10--------|--------------------------]-----------------------]
[-----------------------|-----Repeat 5 times-------]-----------------------]
[-----------------------|--------------------------]-----------------------]
[-----------------------|--------------------------]-----------------------]
|                                                                          |
Guitar 2                                                                   |
[------------s----8-----|-----------b--------------------------------------]
[--s----6--8-\-10-------|--10--12--12--10--12--10--------------------------]
[5-\-7------------------|--------------------------------------------------]
[-----------------------|------Repeat 4 times------------------------------]
[-----------------------|--------------------------------------------------]
[-----------------------|--------------------------------------------------]


Solo
Guitar 1
05:24
[------------------------------------------|-----------------|-------------]
[------------------------------------------|-----------------|-------------]
[---s--------------7--10--9----7--9--10----|-7--9--10--9--10-|-9--10--12---]
[-5-\-7--7--10--9--------------------------|-----------------|-------------]
[------------------------------------------|-----------------|-------------]
[------------------------------------------|-----------------|-------------]

          Hold   Hold                     Hold  Hold                    
[--------------------------------------|-----------------------------------]
[-----------b-13--brp------------------|---b-13--brp-----------------------]
[--10--12--12----12--10----10--12--10--|--12----12--10----10--12--10-------]
[-----------------------12-------------|---------------12------------------]
[--------------------------------------|-----------------------------------]
[--------------------------------------|-----------------------------------]

 hold   hold                   
[----13----------------------|-----------|-----------|-----------|---------]
[--b-----brp-----------------|-brp-------|-brp-------|-brp-------|-brp-----]
[-12----12--10----10--12--10-|-12-10-----|-12-10-----|-12-10-----|-12-10---]
[--------------12------------|-------12--|-------12--|-------12--|-------12]
[----------------------------|-----------|-----------|-----------|---------]
[----------------------------|-----------|-----------|-----------|---------]
                          
                                        
[--brp------|--brp------|--brp------|--brp------|---------------|----------]
[--12-10----|--12-10----|--12-10----|--12-10----|--13--10-12-13-|-10-12-13-]
[--------12-|--------12-|--------12-|--------12-|---------------|----------]
[-----------|-----------|-----------|-----------|---------------|----------]
[-----------|-----------|-----------|-----------|---------------|----------]
[-----------|-----------|-----------|-----------|---------------|----------]


[----------|----h--p---------h--p-------|----h--p-------|----h--p----------]
[-10-12-13-|--10-13-10-12--10-13-10-12--|--10-12-10-13--|--10-13-10-12-----]
[----------|----------------------------|---------------|------------------]
[----------|----------------------------|---------------|------------------]
[----------|----------------------------|---------------|------------------]
[----------|----------------------------|---------------|------------------]
                                                                          
                                                                   
[----h--p---------h--p-------|----h--p---------h--p-------]
[--10-12-10-----10-12-10-----|--10-12-10-----10-12-10-----]
[-----------12----------12---|-----------13-----------13--]
[----------------------------|----------------------------]
[----------------------------|----------------------------]
[----------------------------|----------------------------]


                                                               
[----h--p---------h--p-------|----h--p---------h--p-------]
[--10-12-10-----10-12-10-----|--10-12-10-----10-12-10-----]
[-----------12----------12---|-----------13-----------13--]
[----------------------------|----------------------------]
[----------------------------|----------------------------]
[----------------------------|----------------------------]


[----h--p---------h--p-------|----h--p---------h--p------]
[--10-12-10-----10-12-10-----|--10-12-10-----10-12-10----]
[-----------12----------12---|-----------12----------12--]
[----------------------------|---------------------------]
[----------------------------|---------------------------]
[----------------------------|---------------------------]


[--------------------------------------------------------------------------]
[--10-10----------------------------------------------10--10--10--10--10---]
[---------13--13-13--13-13--13-13--13-13--13-13--13-13--13--13--13--13--13-]
[--------------------------------------------------------------------------]
[--------------------------------------------------------------------------]
[--------------------------------------------------------------------------]


[------------------------|-----------------|---------------]
[--10--10--10--10--10----|----p--p---------|------s--------]
[----13--13--13--13--13--|--13-12-10----10-|----10\9----9--]
[------------------------|-----------12----|-12------12----]
[------------------------|-----------------|---------------]
[------------------------|-----------------|---------------]

 Rake            Rake            Rake            Rake
[---------------|---------------|---------------|--------------]
[-------10--13--|-------10--11--|-------10------|-------10-----]
[----10---------|----10---------|----10-----13--|----10-----9--]
[--x------------|--x------------|--x------------|--x-----------]
[---------------|---------------|---------------|--------------]
[---------------|---------------|---------------|--------------]


Rake            Rake            Rake            Rake
[---------------|---------------|---------------|--------------]
[-------10--13--|-------10--11--|-------10------|-------10-----]
[----10---------|----10---------|----10-----14--|----10-----9--]
[--x------------|--x------------|--x------------|--x-----------]
[---------------|---------------|---------------|--------------]
[---------------|---------------|---------------|--------------]


Rake            Rake            Rake            Rake
[---------------|---------------|---------------|--------------]
[-------10--13--|-------10--11--|-------10------|-------10-----]
[----10---------|----10---------|----10-----13--|----10-----9--]
[--x------------|--x------------|--x------------|--x-----------]
[---------------|---------------|---------------|--------------]
[---------------|---------------|---------------|--------------]


[---------------|--------------|--------------|--------------]
[-------10------|-------10-----|-------10-----|-------10-----]
[----10-----9---|----10----9---|----10----9---|----10----9---]
[--x------------|--x-----------|--x-----------|--x-----------]
[---------------|--------------|--------------|--------------]
[---------------|--------------|--------------|--------------]

06:31
[-------------------------------------|------------------------------------]
[--13--12--10------brp----------------|--13--12--10------brp-------b-------]
[--------------10--12-10----10----10--|--------------10--12-10-----12------]
[------------------------12----12-----|------------------------12----------]
[-------------------------------------|------------------------------------]
[-------------------------------------|------------------------------------]

[-------------------------------------|-----------------------p------------]
[--13--12--10------brp----------------|--13--12--10---b--10--13-10---------]
[--------------10--12-10----10-----10-|--------------12------------12--10--]
[------------------------12----12-----|------------------------------------]
[-------------------------------------|------------------------------------]
[-------------------------------------|------------------------------------]
 
                                b
[----------------------10------13--13-|----------------------10------b-----]
[--13--12--10---b--10------10---------|--13--12--10---b--10-----10--13-----]
[--------------12---------------------|--------------12--------------------]
[-------------------------------------|------------------------------------]
[-------------------------------------|------------------------------------]
[-------------------------------------|------------------------------------]

                                                    hold
[-------------------------------------|-------------------13---------------]
[--13--12--10---b--10--b--10--b--10---|--13--12--10---b------13--rb--------]
[--------------12-----12-----12-------|--------------12---------12--10-----]
[-------------------------------------|------------------------------------]
[-------------------------------------|------------------------------------]
[-------------------------------------|------------------------------------]

06:51
[-----------------|-----10-----|-----10-----|-----10-----|-----10-----]
[-------------10--|--13----10--|--13----10--|--13----10--|--13----10--]
[-----10--12------|------------|------------|------------|------------]
[--12-------------|------------|------------|------------|------------]
[-----------------|------------|------------|------------|------------]
[-----------------|------------|------------|------------|------------]


[------10-----|-----10-----|-----10-----|-----10-----]
[---13----10--|--13----10--|--13----10--|--13----10--]
[-------------|------------|------------|------------]
[-------------|------------|------------|------------]
[-------------|------------|------------|------------]
[-------------|------------|------------|------------]

              b                        ?                               ?
[---10-----|-13--13--10--------10-----|-b-10----b-10----b-10----b-10---]
[13----10--|------------10--13----10--|-13--10--13--10--13--10--13--10-]
[----------|--------------------------|--------------------------------]
[----------|--------------------------|--------------------------------]
[----------|--------------------------|--------------------------------]
[----------|--------------------------|--------------------------------]

07:02
     p  p                     p  p                     p  p
[--13-12-10----10-10-----|--13-12-10----10-10-----|--13-12-10----10-10-----]
[-----------13-------10--|-----------13-------10--|-----------13-------10--]
[------------------------|------------------------|------------------------]
[------------------------|------------------------|------------------------]
[------------------------|------------------------|------------------------]
[------------------------|------------------------|------------------------]


[--b-10----b-10----|-----10---p----|-----10---p----|-----10---p---]
[--13--10--13--10--|---b----13-10--|---b----13-10--|---b----13-10-]
[------------------|--12-----------|--12-----------|--12----------]
[------------------|---------------|---------------|--------------]
[------------------|---------------|---------------|--------------]
[------------------|---------------|---------------|--------------]


[-----10---p----|-----10---p----|-----10---p----|------10---p---]
[---b----13-10--|---b----13-10--|---b----13-10--|---b----13-10--]
[--12-----------|--12-----------|--12-----------|--12-----------]
[---------------|---------------|---------------|---------------]
[---------------|---------------|---------------|---------------]
[---------------|---------------|---------------|---------------]


[-----10---p----|-----10---p----|-----10---p----|------10---p---]
[---b----13-10--|---b----13-10--|---b----13-10--|---b----13-10--]
[--12-----------|--12-----------|--12-----------|--12-----------]
[---------------|---------------|---------------|---------------]
[---------------|---------------|---------------|---------------]
[---------------|---------------|---------------|---------------]


[-----10---p----|----------------|-----------------------------------------]
[---b----13-10--|----------------|-----------------------------------------]
[--12-----------|-12--10---------|---h------h------h------h------h------h--]
[---------------|--------12--12--|-10-12--10-12--10-12--10-12--10-12--10-12]
[---------------|----------------|-----------------------------------------]
[---------------|----------------|-----------------------------------------]

07:18

[--12-0-7-0-|-12-0-7-0-|-12-0-7-0-|-12-0-7-0-|-12-0-7-0-|-12-0-7-0-]
[-----------|----------|----------|----------|----------|----------]
[-----------|----------|----------|----------|----------|----------]
[-----------|----------|----------|----------|----------|----------]
[-----------|----------|----------|----------|----------|----------]
[-----------|----------|----------|----------|----------|----------]

                                                                         s
[--12-0-7-0-|-12-0-3-3-3-3-3-3-3-3-3-3-3-3--|-10-10-10-10-10-10-10-10-10-\-]
[-----------|-------------------------------|------------------------------]
[-----------|-------------------------------|------------------------------]
[-----------|-------------------------------|------------------------------]
[-----------|-------------------------------|------------------------------]
[-----------|-------------------------------|------------------------------]

07:32
[--------------|---s----------|----------------s------|-------|------------]
[--3-3-3-3-3-3-|-3-\-5--5-5-5-|--2-2-2-2--2-2-2\3-3-3-|-3-5-3-|-2--2-3-5-2-]
[--------------|--------------|-----------------------|-------|------------]
[--------------|--------------|-----------------------|-------|------------]
[--------------|--------------|-----------------------|-------|------------]
[--------------|--------------|-----------------------|-------|------------]


[----------------|---------h------------s------------s---------h------]
[--3-5-6-5-3-2-3-|-3-5-6--5-6-6-6-6-6-6-\-8-8-8--8-8-\-2-2--2-2-3-3-3-]
[----------------|----------------------------------------------------]
[---------------------------------------------------------------------]
[---------------------------------------------------------------------]
[---------------------------------------------------------------------]


 Guitar 1
[---s--------------s---------------|-------------3-|-5--3--------------]
[-3-\-5-5-5--5-5-5-\-2-2-2--2-2--2-|-3--5--6-5-6---|------6-5-3-5------]
[----------------------------------|---------------|-------------------]
[----------------------------------|---------------|-------------------]
[----------------------------------|---------------|-------------------]
[----------------------------------|---------------|-------------------]
|                                                                      |
|Guitar 2                                                              |
[--------------------------------------------------|-------13-12-10----]
[--------------------------------------------------|-10-12----------13-]
[--------------------------------------------------|-------------------]
[--------------------------------------------------|-------------------]
[--------------------------------------------------|-------------------]
[--------------------------------------------------|-------------------]



Guitar 1
[----------3--5-|----------3--5-|----------3--5-|----------3--5-----]
[--3--5--6------|--3--5--6------|--3--5--6------|--3--5--6----------]
[---------------|---------------|---------------|-------------------]
[---------------|---------------|---------------|-------------------]
[---------------|---------------|---------------|-------------------]
[---------------|---------------|---------------|-------------------]
|                                                                   |
|Guitar 2                                                           |
[----------10-12-|----------10-12-|----------10-12-|----------10-12-]
[-10-12-13-------|-10-12-13-------|-10-12-13-------|-10-12-13-------]
[----------------|----------------|----------------|----------------]
[----------------|----------------|----------------|----------------]
[----------------|----------------|----------------|----------------]
[----------------|----------------|----------------|----------------]


Guitar 1
[----------3------|----------3------|----------3-----------------]
[--3--5--6---6--5-|--3--5--6---6--5-|--3--5--6---6--5----3-------]
[-----------------|-----------------|----------------------------]
[-----------------|-----------------|----------------------------]
[-----------------|-----------------|----------------------------]
[-----------------|-----------------|----------------------------]
|                                                                |
|Guitar 2                                                        |
[----------10-------|----------10-------|----------10------------]
[-10-12-13----13-12-|-10-12-13----13-12-|-10-12-13----13-12---10-]
[-------------------|-------------------|------------------------]
[-------------------|-------------------|------------------------]
[-------------------|-------------------|------------------------]
[-------------------|-------------------|------------------------]


Any Mistakes let me know
If anyone knows the chords, let me know i will add them.
comments
We did not receive enough feedback on this tab! Please rate:
print report bad tab
1 2 3 4 5
1 comment total.
0 reply
ukmanufactured wrote on January 5 2013, 02:37 pm

excellent work you should do the bass tab for this song that would be a real challenge

I want to post or [tab]
guest
You may want to rate the tab now too:
select rating
Please do not post tabs as comments. Select "correction" instead!