Oops, an error
Loading. Please wait.

Outward Bound Tab

ver2
ver2

Whole song

Interactive

More versions @911Tabs.com
507 views 3 this week
1 commentread comment
1 2 3 4 5
excellent!
x 1
Autoscroll
+/-
esc
set tempo
stop
Contributor
Hey! There's an official Ultimate Guitar app which is ideal
for learning songs when you're away from computer. Get the app
WARNING: You are trying to view
                                    content from Ultimate-Guitar.com
                                    in an unauthorized application,
                                    which is prohibited.

                                    Please use an official Ultimate
                                    Guitar Tabs application for iPhone,
                                    iPad or Android to access legitimate
                                    chords, guitar, bass, and drum tabs
                                    from Ultimate-Guitar.com database.

                                    Type "ultimate guitar tabs" in Apple
                                    App Store's or Android Market's
                                    search to find the application.
#----------------------------------PLEASE NOTE---------------------------------#
#This file is the author's own work and represents their interpretation of the #
#song. You may only use this file for private study, scholarship, or research. #
#------------------------------------------------------------------------------#

OUTWARD BOUND
As recorded by Wishbone Ash



Transcribed by Brian M.(Lunchboxattacks@hotmail.com

 

 

Gtr I (E A D G B E) - 'Untitled'
Gtr II (E A D G B E) - 'Untitled'
Gtr III (E A D G B E) - 'Untitled'
Gtr IV (E A D G B E) - 'Untitled'
Gtr V (E A D G B E) - 'Untitled'


    Q=125
   4/4
    Gtr I
    e S e S H             +E
||-----------------------------|
||o----------------------------|
||--7---7---7-------------(7)--|
||--7---7---7-------------(7)--|
||o----------------------------|
||-----------------------------|
|
|   Gtr II
|   H         S S S S S S  S S
||-----------------------------|
||o----------------------------|
||-----------------------------|
||--------------------3p0------|
||o-------------0-3--------3p0-|
||-----------------------------|


  Gtr I                Gtrs I, III
  e S e S H    +E      e S e S H             +E
|-------------------||----------------------------|
|------------------o||----------------------------|
|-7---7---7----(7)--||-7---7---7-------------(7)--|
|-7---7---7----(7)--||-7---7---7-------------(7)--|
|------------------o||----------------------------|
|-------------------||----------------------------|
|
| Gtr II               Gtr II
| W                    H         S S S S S S  S S
|-------------------||----------------------------|
|------------------o||----------------------------|
|-------------------||----------------------------|
|-------------------||-------------------3p0------|
|------------------o||-------------0-3--------3p0-|
|-------------------||----------------------------|


  Gtrs I, III
  e S e S H    +E    e S e S H             +E     W
|------------------|----------------------------|------------------|
|------------------|-1---1---1-------------(1)--|------------------|
|-7---7---7----(7)-|-2---2---2-------------(2)--|------------------|
|-7---7---7----(7)-|-0---0---0-------------(0)--|------------------|
|------------------|----------------------------|------------------|
|------------------|----------------------------|------------------|
|
| Gtr II
| W                  H         S S S S S S  S S   e S e S H    +E
|------------------|----------------------------|------------------|
|------------------|----------------------------|------------------|
|------------------|----------------------------|-7---7---7----(7)-|
|------------------|-------------------3p0------|-7---7---7----(7)-|
|------------------|-------------0-3--------3p0-|------------------|
|------------------|----------------------------|------------------|


  Gtrs I, III
                            ~~~~~~~~~~
   a  S.  S    a  E    S    S.    +Q.    +S   S   S
|-12h13--10---12h13---12---10----(10)---(10)--------|
|--------------------------------------------13p=10-|
|---------------------------------------------------|
|---------------------------------------------------|
|---------------------------------------------------|
|---------------------------------------------------|
|
| Gtr II
|     e     S       e    S     H             +E
|---------------------------------------------------|
|---------------------------------------------------|
|-----7-------------7----------7-------------(7)----|
|-----7-------------7----------7-------------(7)----|
|---------------------------------------------------|
|---------------------------------------------------|


                         ~~
   E       S  E       S  H     +E
|--------------------10-------------|
|-13b13.5-10-13b13.5----------------|
|-----------------------12----(12)--|
|-----------------------------------|
|-----------------------------------|
|-----------------------------------|
|
|  e       S  e       S  H     +E
|-----------------------------------|
|-----------------------------------|
|--5----------5---------------------|
|--5----------5----------5-----(5)--|
|------------------------5-----(5)--|
|------------------------3----------|


  Gtrs I, III
                      ~~~~
   S      +S   S  S  +H          E  e
|--------------------------------------|
|--------------------------------------|
|-12pb14r(12)p10-------------------10--|
|----------------12-(12)-------/12-----|
|--------------------------------------|
|--------------------------------------|
|
|        Gtr II
|  e           S  e      S H       +E
|--------------------------------------|
|--------------------------------------|
|--7--------------7--------7-------(7)-|
|--7--------------7--------7-------(7)-|
|--------------------------------------|
|--------------------------------------|


                         ~~~~~~~~
   S      +S   S  S     +H.
|------------------------------------------|
|----------------13b15-(13)pb15------------|
|-12pb14r(12)p10---------------------------|
|------------------------------------------|
|------------------------------------------|
|------------------------------------------|
|
|  e           S  e             S H    +E
|------------------------------------------|
|------------------------------------------|
|--7--------------7---------------7----(7)-|
|--7--------------7---------------7----(7)-|
|------------------------------------------|
|------------------------------------------|


  Gtrs I, III
                            ~~~~~~~~~~
   a  S.  S    a  E    S    S.    +Q.    +S   S   S
|-12h13--10---12h13---12---10----(10)---(10)--------|
|--------------------------------------------13p=10-|
|---------------------------------------------------|
|---------------------------------------------------|
|---------------------------------------------------|
|---------------------------------------------------|
|
|    Gtr II
|     e     S       e    S     H             +E
|---------------------------------------------------|
|---------------------------------------------------|
|-----7-------------7----------7-------------(7)----|
|-----7-------------7----------7-------------(7)----|
|---------------------------------------------------|
|---------------------------------------------------|


                         ~~
   E       S  E       S  Q    Q       E
|--------------------15-------------------|
|-13b13.5-10-13b13.5----------------------|
|-----------------------16--[16]b18-------|
|-----------------------------------------|
|-----------------------------------------|
|-----------------------------------------|
|
|  e       S  e       S  H           +E
|-----------------------------------------|
|-----------------------------------------|
|--5----------5---------------------------|
|--5----------5----------5-----------(5)--|
|------------------------5-----------(5)--|
|------------------------3----------------|


  Gtrs I, III
                     ~~~~
   S     +S   S  S  +H.
|----------------------------------|
|---------------15-(15)------------|
|-12b14r(12)p10--------------------|
|----------------------------------|
|----------------------------------|
|----------------------------------|
|
| Gtr II
|  e          S  e      S H    +E
|----------------------------------|
|----------------------------------|
|--7-------------7--------7----(7)-|
|--7-------------7--------7----(7)-|
|----------------------------------|
|----------------------------------|
|
| Gtr IV
|  W
|----------------------------------|
|----------------------------------|
|----------------------------------|
|----------------------------------|
|----------------------------------|
|----------------------------------|


                                         $
                     ~~~~                   ~~~       ~~
   S     +S   S  S  +H          +E    E     Q.     E  Q   Q
|----------------------------------------|------------------------|
|---------------15-(15)--------(15)------|------------------------|
|-12b14r(12)p10--------------------------|-14--------14--14pb16r==|
|----------------------------------------|------------------------|
|-----------------------------------/15--|-------/15--------------|
|----------------------------------------|------------------------|
|
|  e          S  e      S H          +E     W
|----------------------------------------|------------------------|
|----------------------------------------|------------------------|
|--7-------------7--------7----------(7)-|------------------------|
|--7-------------7--------7----------(7)-|--3---------------------|
|----------------------------------------|--3---------------------|
|----------------------------------------|--1---------------------|
|
|                                           ~~~       ~~
|  H                        Q    E    E     Q.     E  Q   Q
|----------------------------------------|------------------------|
|----------------------------------------|-13--------13--13pb15r==|
|----------------------------------------|------------------------|
|-----------------------------------/15--|-------/15--------------|
|----------------------------------------|------------------------|
|----------------------------------------|------------------------|


  Gtrs I, III
   ~~~                    ~~~       ~~
   H.          +E    E    Q.     E  Q   Q
|----------------------|--8---------8---8pb10r=|
|----------------------|-----------------------|
|--------------(5)--/9-|--------/9-------------|
|----------------------|-----------------------|
|-15-------------------|-----------------------|
|----------------------|-----------------------|
|
| Gtr II
| +Q.   E  q    q         W
|---------------8------|-----------------------|
|---------12---10------|-----------------------|
|---------12---10------|--5--------------------|
|-(3)------------------|--5--------------------|
|-(3)------------------|--3--------------------|
|-(1)------------------|-----------------------|
|
| Gtr IV
|  ~~~~~~~~~~~~~~~~       ~~~       ~~
|  H.          +E    E    Q.     E  Q   Q
|----------------------|-----------------------|
|----------------------|-17--------17--17pb18r=|
|----------------------|-----------------------|
|-15----------(15)-/19-|-------/19-------------|
|----------------------|-----------------------|
|----------------------|-----------------------|


                                               To Coda
    ~~~~                        ~~~~            ~~~~
    H.       +E   E    +E.     +E.  E  +E.     +E.  E
|---8--------(8)-12-|-(12)b13r(12)-10-(10)b12r(10)--8---||
|-------------------|-----------------------------------||
|-------------------|-----------------------------------||
|-------------------|-----------------------------------||
|-------------------|-----------------------------------||
|-------------------|-----------------------------------||
|
|  +H.       +E   E     H               H
|-------------------|-----------------------------------||
|-------------------|-----------------------------------||
|--(5)-------(5)----|-----------------------------------||
|--(5)-------(5)----|---3---------------5---------------||
|--(3)-------(3)----|---3---------------5---------------||
|-------------------|---1---------------3---------------||
|
|   ~~~~                        ~~~~            ~~~~
|  +H.       +E   E    +E.     +E.  E  +E.     +E.  E
|----------------15-|-(15)b17r(15)-13-(13)b15r(13)-12---||
|-(17)------(17)----|-----------------------------------||
|-------------------|-----------------------------------||
|-------------------|-----------------------------------||
|-------------------|-----------------------------------||
|-------------------|-----------------------------------||


  Gtrs I, III
                  ~~         ~~~     ~
   +E.     +E.  E Q.    E    Q.    E Q  Q
|--(8)b10r=(8)------------|--7-------7--7b8---|
|---------------6-5----/8-|--------8----------|
|-------------------------|-------------------|
|-------------------------|-------------------|
|-------------------------|-------------------|
|-------------------------|-------------------|
|
| Gtr II
|   H             Q.    E   +W
|-------------------------|-------------------|
|-------------------------|-------------------|
|-----------------5-----7-|-(7)---------------|
|---3-------------5-----7-|-(7)---------------|
|---3-------------3-----5-|-(5)---------------|
|---1---------------------|-------------------|
|
| Gtr IV
|                 ~~         ~~~     ~
|  +E.     +E.  E Q.    E    Q.    E Q  Q
|-(12)b13r(12)-10-8-------|-------------------|
|-------------------------|--8-------8--8b10--|
|----------------------/7-|-------/7----------|
|-------------------------|-------------------|
|-------------------------|-------------------|
|-------------------------|-------------------|


      D.S. al Coda    &
       ~~                             ~
   S S H.           E    E.    +E.  E E S  E S E
|--7p5----------------|--8b10r=(8)---------------|
|------6--------------|-------------6-5----6---5-|
|---------------------|--------------------------|
|---------------------|--------------------------|
|-----------------/15-|--------------------------|
|---------------------|--------------------------|
|
| +H.         +E    E    W
|---------------------|--------------------------|
|---------------------|--------------------------|
|-(7)---------(7)-----|--7-----------------------|
|-(7)---------(7)-----|--7-----------------------|
|-(5)---------(5)-----|--5-----------------------|
|---------------------|--------------------------|
|
|      ~~                             ~
|  S S H.           E    E.    +E.  E E S  E S E
|---------------------|-12b13r(12)-10-8---10---8-|
|--8p6----------------|--------------------------|
|------7--------------|--------------------------|
|-----------------/15-|--------------------------|
|---------------------|--------------------------|
|---------------------|--------------------------|


  Gtrs I, III
   ~~~~~~~~~~~~~~~~~~~~~~~~~~
   W                 +W
|-----------------|---------------------------------------|
|-13b15-----------|-(13)pb15------------------------------|
|-----------------|---------------------------------------|
|-----------------|---------------------------------------|
|-----------------|---------------------------------------|
|-----------------|---------------------------------------|
|
| Gtr II
|                                      ~~~~~~~~~~~~~~~~~~~
|  H.        E  E     E       S  E  S  H          +E
|-----------------|--12b13---12-10----13b15.5----(13)pb15-|
|--------------10-|----------------10---------------------|
|-----------------|---------------------------------------|
|-----------------|---------------------------------------|
|-----------------|---------------------------------------|
|-----------------|---------------------------------------|
|
| Gtr IV
|  ~~~~~
|  W                  W
|-12b13-----------|---------------------------------------|
|-----------------|---------------------------------------|
|-----------------|---------------------------------------|
|-----------------|---------------------------------------|
|-----------------|---------------------------------------|
|-----------------|---------------------------------------|


  Gtr I
  E S E.    e S S S S S S S S
|-----------------------------|
|-----------------------------|
|-----------------------------|
|---------------------3p0-----|
|-5-x-3b3.5-5---0h3-------3p0-|
|-----------------------------|
|
| Gtr II
| E S E.    e S S S S S S S S
|-----------------------------|
|---------------------6p3-----|
|-7-x-5b5.5-7---2h5-------5p2-|
|-----------------------------|
|-----------------------------|
|-----------------------------|


  E S E.    e H              E S E.    e S S S S S S S S
|--------------------------|-----------------------------|
|--------------------------|-----------------------------|
|--------------------------|-----------------------------|
|--------------------------|---------------------3p0-----|
|-5-x-3b3.5-5--------------|-5-x-3b3.5-5---0h3-------3p0-|
|--------------------------|-----------------------------|
|
| E S E.    e S S   E  Q     E S E.    e S S S S S S S S
|-----------------/10-13\--|-----------------------------|
|--------------------------|---------------------6p3-----|
|-7-x-5b5.5-7-x-x----------|-7-x-5b5.5-7---2h5-------5p2-|
|--------------------------|-----------------------------|
|--------------------------|-----------------------------|
|--------------------------|-----------------------------|


  Gtr I
  E S E.    e H            E S E.    e S S S S S S S S
|------------------------|-----------------------------|
|------------------------|-----------------------------|
|------------------------|-----------------------------|
|------------------------|---------------------3p0-----|
|-5-x-3b3.5-5------------|-5-x-3b3.5-5---0h3-------3p0-|
|------------------------|-----------------------------|
|
| Gtr II
|                     ~
| E S E.    e S S S S Q    E S E.    e S S S S S S S S
|------------------------|-----------------------------|
|------------------------|---------------------6p3-----|
|-7-x-5b5.5-7------------|-7-x-5b5.5-7---2h5-------5p2-|
|-------------3p0--------|-----------------------------|
|-----------------0h3----|-----------------------------|
|---------------------1--|-----------------------------|


  E S E.    e H
|-------------------------------------|
|-------------------------------------|
|-------------------------------------|
|-------------------------------------|
|-5-x-3b3.5-5-------------------------|
|-------------------------------------|
|
| E S E.    e E S     +Q      +S
|-------------8-8-----(8)-----(8)-----|
|---------------8pb10r(8)b10--(8)pb10-|
|-7-x-5b5.5-7-------------------------|
|-------------------------------------|
|-------------------------------------|
|-------------------------------------|


  Gtr I
  E S E.    e S S S S S S S S   E S E.    e H
|-----------------------------|------------------|
|-----------------------------|------------------|
|-----------------------------|------------------|
|---------------------3p0-----|------------------|
|-5-x-3b3.5-5---0h3-------3p0-|-5-x-3b3.5-5------|
|-----------------------------|------------------|
|
| Gtr II
| E S E.    e S S S S S S S S   E S E.    e H
|-----------------------------|------------------|
|---------------------6p3-----|------------------|
|-7-x-5b5.5-7---2h5-------5p2-|-7-x-5b5.5-7------|
|-----------------------------|------------------|
|-----------------------------|------------------|
|-----------------------------|------------------|


                            ~~~~~~~~~~
   a  S.  S    a  E    S    S.    +Q.    +S   S   S
|-12h13--10---12h13---12---10----(10)---(10)--------|
|--------------------------------------------13p=10-|
|---------------------------------------------------|
|---------------------------------------------------|
|---------------------------------------------------|
|---------------------------------------------------|
|
|     e     S       e    S     H             +E
|---------------------------------------------------|
|---------------------------------------------------|
|-----7-------------7----------7-------------(7)----|
|-----7-------------7----------7-------------(7)----|
|---------------------------------------------------|
|---------------------------------------------------|


  Gtr I
                         ~~                              ~~~~
   E       S  E       S  H     +E     S      +S   S  S  +H          E  e
|--------------------10------------|--------------------------------------|
|-13b13.5-10-13b13.5---------------|--------------------------------------|
|-----------------------12----(12)-|-12pb14r(12)p10-------------------10--|
|----------------------------------|----------------12-(12)-------/12-----|
|----------------------------------|--------------------------------------|
|----------------------------------|--------------------------------------|
|
| Gtr II
|  e       S  e       S  H     +E     e           S  e      S H       +E
|----------------------------------|--------------------------------------|
|----------------------------------|--------------------------------------|
|--5----------5--------------------|--7--------------7--------7-------(7)-|
|--5----------5----------5-----(5)-|--7--------------7--------7-------(7)-|
|------------------------5-----(5)-|--------------------------------------|
|------------------------3---------|--------------------------------------|


                         ~~~~~~~~
   S      +S   S  S     +H.
|------------------------------------------|
|----------------13b15-(13)pb15------------|
|-12pb14r(12)p10---------------------------|
|------------------------------------------|
|------------------------------------------|
|------------------------------------------|
|
|  e           S  e             S H    +E
|------------------------------------------|
|------------------------------------------|
|--7--------------7---------------7----(7)-|
|--7--------------7---------------7----(7)-|
|------------------------------------------|
|------------------------------------------|


  Gtr I
                            ~~~~~~~~~~
   a  S.  S    a  E    S    S.    +Q.    +S   S   S
|-12h13--10---12h13---12---10----(10)---(10)--------|
|--------------------------------------------13p=10-|
|---------------------------------------------------|
|---------------------------------------------------|
|---------------------------------------------------|
|---------------------------------------------------|
|
| Gtr II
|     e     S       e    S     H             +E
|---------------------------------------------------|
|---------------------------------------------------|
|-----7-------------7----------7-------------(7)----|
|-----7-------------7----------7-------------(7)----|
|---------------------------------------------------|
|---------------------------------------------------|


                         ~~~~~~~~
   E       S  E       S  Q   +Q    E
|--------------------15----------------|
|-13b13.5-10-13b13.5----12--(12)-------|
|--------------------------------------|
|--------------------------------------|
|--------------------------------------|
|--------------------------------------|
|
|  e       S  e       S  H        +E
|--------------------------------------|
|--------------------------------------|
|--5----------5------------------------|
|--5----------5----------5--------(5)--|
|------------------------5--------(5)--|
|------------------------3-------------|


         Gtr I
                      ~~~~
   S      +S   S  S  +H          E  e
|--------------------------------------|
|--------------------------------------|
|-12pb14r(12)p10-------------------10--|
|----------------12-(12)-------/12-----|
|--------------------------------------|
|--------------------------------------|
|
| Gtr II
|  e           S  e      S H       +E
|--------------------------------------|
|--------------------------------------|
|--7--------------7--------7-------(7)-|
|--7--------------7--------7-------(7)-|
|--------------------------------------|
|--------------------------------------|
|
| Gtr IV
|  W
|--------------------------------------|
|--------------------------------------|
|--------------------------------------|
|--------------------------------------|
|--------------------------------------|
|--------------------------------------|


                                           Gtrs I, III
                  ~~~~~~~~~~~~~~~~~~        ~~~       ~~
   S      +S   S  S  +H         +E    E     Q.     E  Q   Q
|----------------13-(13)-------(13)------|------------------------|
|----------------------------------------|------------------------|
|-12pb14r(12)p10-------------------------|-14--------14--14pb16r==|
|----------------------------------------|------------------------|
|-----------------------------------/15--|-------/15--------------|
|----------------------------------------|------------------------|
|
|  e           S  e      S H         +E     W
|----------------------------------------|------------------------|
|----------------------------------------|------------------------|
|--7--------------7--------7---------(7)-|------------------------|
|--7--------------7--------7---------(7)-|--3---------------------|
|----------------------------------------|--3---------------------|
|----------------------------------------|--1---------------------|
|
|                                           ~~~       ~~
|  H.                            E    E     Q.     E  Q   Q
|----------------------------------------|------------------------|
|----------------------------------------|-13--------13--13pb15r==|
|----------------------------------------|------------------------|
|-----------------------------------/15--|-------/15--------------|
|----------------------------------------|------------------------|
|----------------------------------------|------------------------|


  Gtrs I, III
   ~~~                    ~~~       ~~
   H.          +E    E    Q.     E  Q   Q
|----------------------|--8---------8---8pb10r=|
|----------------------|-----------------------|
|--------------(5)--/9-|--------/9-------------|
|----------------------|-----------------------|
|-15-------------------|-----------------------|
|----------------------|-----------------------|
|
| Gtr II
| +Q.   E  q    q         W
|---------------8------|-----------------------|
|---------12---10------|-----------------------|
|---------12---10------|--5--------------------|
|-(3)------------------|--5--------------------|
|-(3)------------------|--3--------------------|
|-(1)------------------|-----------------------|
|
| Gtr IV
|  ~~~~~~~~~~~~~~~~       ~~~       ~~
|  H.          +E    E    Q.     E  Q   Q
|----------------------|-----------------------|
|----------------------|-17--------17--17pb18r=|
|----------------------|-----------------------|
|-15----------(15)-/19-|-------/19-------------|
|----------------------|-----------------------|
|----------------------|-----------------------|


    ~~~~                        ~~~~            ~~~~
    H.       +E   E    +E.     +E.  E  +E.     +E.  E
|---8--------(8)-12-|-(12)b13r(12)-10-(10)b12r(10)--8---|
|-------------------|-----------------------------------|
|-------------------|-----------------------------------|
|-------------------|-----------------------------------|
|-------------------|-----------------------------------|
|-------------------|-----------------------------------|
|
|  +H.       +E   E     H               H
|-------------------|-----------------------------------|
|-------------------|-----------------------------------|
|--(5)-------(5)----|-----------------------------------|
|--(5)-------(5)----|---3---------------5---------------|
|--(3)-------(3)----|---3---------------5---------------|
|-------------------|---1---------------3---------------|
|
|   ~~~~                        ~~~~            ~~~~
|  +H.       +E   E    +E.     +E.  E  +E.     +E.  E
|----------------15-|-(15)b17r(15)-13-(13)b15r(13)-12---|
|-(17)------(17)----|-----------------------------------|
|-------------------|-----------------------------------|
|-------------------|-----------------------------------|
|-------------------|-----------------------------------|
|-------------------|-----------------------------------|


  Gtrs I, III
                 ~~         ~~~     ~
  +E.     +E.  E Q.    E    Q.    E Q  Q
|-(8)b10r=(8)------------|--7-------7--7b8---|
|--------------6-5----/8-|--------8----------|
|------------------------|-------------------|
|------------------------|-------------------|
|------------------------|-------------------|
|------------------------|-------------------|
|
| Gtr II
|  H             Q.    E   +W
|------------------------|-------------------|
|------------------------|-------------------|
|----------------5-----7-|-(7)---------------|
|--3-------------5-----7-|-(7)---------------|
|--3-------------3-----5-|-(5)---------------|
|--1---------------------|-------------------|
|
| Gtr IV
|                ~~         ~~~     ~
|  E.     +E.  E Q.    E    Q.    E Q  Q
|-12b13r=(12)-10-8-------|-------------------|
|------------------------|--8-------8--8b10--|
|---------------------/7-|-------/7----------|
|------------------------|-------------------|
|------------------------|-------------------|
|------------------------|-------------------|


       ~~                ~~~       ~~
   S S H.           E    Q.     E  Q   Q
|--7p5----------------|---------------------------|
|------6--------------|---------------------------|
|---------------------|-14--------14--14pb16r=====|
|---------------------|---------------------------|
|-----------------/15-|-------/15-----------------|
|---------------------|---------------------------|
|
| +H.         +E    E    W
|---------------------|---------------------------|
|---------------------|---------------------------|
|-(7)---------(7)-----|---------------------------|
|-(7)---------(7)-----|--3------------------------|
|-(5)---------(5)-----|--3------------------------|
|---------------------|--1------------------------|
|
|      ~~                ~~~       ~~
|  S S H.           E    Q.     E  Q   E      +E
|---------------------|---------------------------|
|--8p6----------------|-13--------13--13pb15r(13)-|
|------7--------------|---------------------------|
|-----------------/15-|-------/15-----------------|
|---------------------|---------------------------|
|---------------------|---------------------------|


  Gtrs I, III
   ~~~                    ~~~       ~~
   H.          +E    E    Q.     E  E  E.    +E.
|----------------------|--8---------8--8b10--(8)b10--|
|----------------------|-----------------------------|
|--------------(5)--/9-|--------/9-------------------|
|----------------------|-----------------------------|
|-15-------------------|-----------------------------|
|----------------------|-----------------------------|
|
| Gtr II
|  Q.   E  q    q         W
|---------------8------|-----------------------------|
|---------12---10------|-----------------------------|
|---------12---10------|--5--------------------------|
|--3-------------------|--5--------------------------|
|--3-------------------|--3--------------------------|
|--1-------------------|-----------------------------|
|
| Gtr IV
|  ~~~~~~~~~~~~~~~~       ~~~       ~~
|  H.          +E    E    Q.     E  E  E.    +E.
|----------------------|-----------------------------|
|----------------------|-17--------17-17b18-(17)b18--|
|----------------------|-----------------------------|
|-15----------(15)-/19-|-------/19-------------------|
|----------------------|-----------------------------|
|----------------------|-----------------------------|


                               ~~~~            ~~~~
   H.        E   E    +E.     +E.  E  +E.     +E.  E
|--8---------8--12-|-(12)b13r(12)-10-(10)b12r(10)--8---|
|------------------|-----------------------------------|
|------------------|-----------------------------------|
|------------------|-----------------------------------|
|------------------|-----------------------------------|
|------------------|-----------------------------------|
|
| +H.       +E   E     H               H
|------------------|-----------------------------------|
|------------------|-----------------------------------|
|-(5)-------(5)----|-----------------------------------|
|-(5)-------(5)----|---3---------------5---------------|
|-(3)-------(3)----|---3---------------5---------------|
|------------------|---1---------------3---------------|
|
|  ~~~                         ~~~~            ~~~~
|  H.       +E   E    +E.     +E.  E  +E.     +E.  E
|---------------15-|-(15)b17r(15)-13-(13)b15r(13)-12---|
|-17-------(17)----|-----------------------------------|
|------------------|-----------------------------------|
|------------------|-----------------------------------|
|------------------|-----------------------------------|
|------------------|-----------------------------------|


  Gtrs I, III
                ~             ~~~~~~~~~~~~~~~~~       ~~~~~~~
   E.    +E.  E E S  E S E    H.         E      E    +W
|--8b10r=(8)---------------|----------------------|------------|
|-------------6-5----6---5-|-13b15------13pb15-20-|-(20)b22----|
|--------------------------|----------------------|------------|
|--------------------------|----------------------|------------|
|--------------------------|----------------------|------------|
|--------------------------|----------------------|------------|
|
| Gtr II
|  W                          H.        +E      E    +W
|--------------------------|----------------------|------------|
|--------------------------|----------------------|------------|
|--7-----------------------|--7---------(7)-----7-|--(7)-------|
|--7-----------------------|--7---------(7)-----7-|--(7)-------|
|--5-----------------------|--5---------(5)-----5-|--(5)-------|
|--------------------------|----------------------|------------|
|
| Gtr IV
|               ~             ~~~~~~~~~~~~~~~~~       ~~~~~~~
|  E.    +E.  E E S  E S E    H.         E      E    +W
|-12b13r(12)-10-8---10---8-|-------------------20-|-(20)b22----|
|--------------------------|-17b18------17pb18----|------------|
|--------------------------|----------------------|------------|
|--------------------------|----------------------|------------|
|--------------------------|----------------------|------------|
|--------------------------|----------------------|------------|


    Gtr V
    E Q.   E. E. E    a Q.   +S  S Q.   E
||------------------|---------------------|
||o-----------------|---------------------|
||------------------|---------------------|
||---------5-----5--|-7s9----(9)-7-7------|
||o---5/------7-----|---------------------|
||------------------|---------------------|
|
|   Gtr II
|   W                   W
||------------------|---------------------|
||o-----------------|---------------------|
||--2---------------|---5-----------------|
||--2---------------|---5-----------------|
||o-0---------------|---3-----------------|
||------------------|---------------------|


  E  E.     E.     E. E.   E   +W      3x
|----------------------------|---------||
|----------------------------|--------o||
|----------------------------|---------||
|---10------9-----10--9----7-|-(7)-----||
|----------------------------|--------o||
|----------------------------|---------||
|
| E  E   E     Q.        E E    W      3x
|----------------------------|---------||
|----------------------------|--------o||
|--------------0-------------|--7------||
|-------(2)--------------7---|--7------||
|-3--5-------------------5---|--5-----o||
|----------------------------|---------||


  Gtr V
  E Q.   E. E. E    a Q.   +S  S Q.   E   E  E.     E.     E. E.   E   +W
|-----------------|---------------------|----------------------------|--------|
|-----------------|---------------------|----------------------------|--------|
|-----------------|---------------------|----------------------------|--------|
|--------5-----5--|-7s9----(9)-7-7------|---10------9-----10--9----7-|-(7)----|
|---5/------7-----|---------------------|----------------------------|--------|
|-----------------|---------------------|----------------------------|--------|
|
| Gtr II
| W                   W                   E  E   E     Q.        E E    W
|-----------------|---------------------|----------------------------|--------|
|-----------------|---------------------|----------------------------|--------|
|-2---------------|---5-----------------|--------------0-------------|--2-----|
|-2---------------|---5-----------------|-------(2)--------------3---|--3-----|
|-0---------------|---3-----------------|-3--5-------------------3---|--3-----|
|-----------------|---------------------|----------------------------|--1-----|


  Gtr I                           Gtr I
  +W                 +W           E  e   e  e  Q      S  S  e
|------------------|------------|-----------------------------|
|------------------|------------|-----------------------------|
|------------------|------------|-------10-12-12b14--12p10----|
|-(7)--------------|-(7)--------|---12---------------------12-|
|------------------|------------|-----------------------------|
|------------------|------------|-----------------------------|
|
| Gtr II                          Gtr II
|  H.      +E  S S   +W           E  H.                     E
|------------------|------------|-----------------------------|
|------------------|------------|-----------------------------|
|--2-------(2)-2-2-|-(2)--------|-2---------------------------|
|--3-------(3)-3-3-|-(3)--------|-3---------------------------|
|--3-------(3)-3-3-|-(3)--------|-3---------------------------|
|--1-------(1)-1-1-|-(1)--------|-1---------------------------|


  Gtr I
  E S E.    e S S S S S S S S   E S E.    e H
|-----------------------------|--------------------------|
|-----------------------------|--------------------------|
|-----------------------------|--------------------------|
|---------------------3p0-----|--------------------------|
|-5-x-3b3.5-5---0h3-------3p0-|-5-x-3b3.5-5--------------|
|-----------------------------|--------------------------|
|
| Gtr II
| E S E.    e S S S S S S S S   E S E.    e S S   E  Q
|-----------------------------|-----------------/10-13\--|
|---------------------6p3-----|--------------------------|
|-7-x-5b5.5-7---2h5-------5p2-|-7-x-5b5.5-7-x-x----------|
|-----------------------------|--------------------------|
|-----------------------------|--------------------------|
|-----------------------------|--------------------------|


  E S E.    e S S S S S S S S   E S E.    e E   Q    +E
|-----------------------------|----------------------------|
|-----------------------------|----------------------------|
|-----------------------------|----------------------------|
|---------------------3p0-----|----------------------------|
|-5-x-3b3.5-5---0h3-------3p0-|-5-x-3b3.5-5-----3b5--(3)---|
|-----------------------------|----------------------------|
|
| E S E.    e S S S S S S S S   E S E.    e S S Q.
|-----------------------------|----------------------------|
|---------------------6p3-----|----------------------------|
|-7-x-5b5.5-7---2h5-------5p2-|-7-x-5b5.5-7-x-x------------|
|-----------------------------|----------------------------|
|-----------------------------|----------------------------|
|-----------------------------|----------------------------|


  Gtr I
  E S E.    e S S S S S S S S   E S E.    e H
|-----------------------------|---------------------------|
|-----------------------------|---------------------------|
|-----------------------------|---------------------------|
|---------------------3p0-----|---------------------------|
|-5-x-3b3.5-5---0h3-------3p0-|-5-x-3b3.5-5---------------|
|-----------------------------|---------------------------|
|
| Gtr II
|                                                     ~~~
| E S E.    e S S S S S S S S   E S E.    e E  E     +Q
|-----------------------------|---------------[8]b10r(8)--|
|---------------------6p3-----|---------------------------|
|-7-x-5b5.5-7---2h5-------5p2-|-7-x-5b5.5-7---------------|
|-----------------------------|---------------------------|
|-----------------------------|---------------------------|
|-----------------------------|---------------------------|


  E S E.    e S S S S S S S S
|------------------------------|
|------------------------------|
|------------------------------|
|---------------------3p0------|
|-5-x-3b3.5-5---0h3-------3p0--|
|------------------------------|
|
| E S E.    e S S S S S S S S
|------------------------------|
|---------------------6p3------|
|-7-x-5b5.5-7---2h5-------5p2--|
|------------------------------|
|------------------------------|
|------------------------------|


  Gtr I
                                                ~~~~~~~~~~
  E S E.    Q.   Q     a  S.  S    a  E    S    S.    +Q.    +S   S   S
|-------------------|-12h13--10---12h13---12---10----(10)---(10)--------|
|-------------------|--------------------------------------------13p=10-|
|-------------------|---------------------------------------------------|
|-------------------|---------------------------------------------------|
|-5-x-3b3.5-5\------|---------------------------------------------------|
|-------------------|---------------------------------------------------|
|
| Gtr II
| E S E.    Q.   Q        e     S       e    S     H             +E
|-------------------|---------------------------------------------------|
|-------------------|---------------------------------------------------|
|-7-x-5b5.5-7\------|-----7-------------7----------7-------------(7)----|
|-------------------|-----7-------------7----------7-------------(7)----|
|-------------------|---------------------------------------------------|
|-------------------|---------------------------------------------------|


                         ~~                              ~~~~
   E       S  E       S  H     +E     S      +S   S  S  +H          E  e
|--------------------10------------|----------------------------------------|
|-13b13.5-10-13b13.5---------------|----------------------------------------|
|-----------------------12----(12)-|-12pb14r(12)p10-------------------10----|
|----------------------------------|----------------12-(12)-------/12-------|
|----------------------------------|----------------------------------------|
|----------------------------------|----------------------------------------|
|
|  e       S  e       S  H     +E     e           S  e      S H       +E
|----------------------------------|----------------------------------------|
|----------------------------------|----------------------------------------|
|--5----------5--------------------|--7--------------7--------7-------(7)---|
|--5----------5----------5-----(5)-|--7--------------7--------7-------(7)---|
|------------------------5-----(5)-|----------------------------------------|
|------------------------3---------|----------------------------------------|


  Gtr I
                         ~~~~~~~~                                      ~~~~~~~~~~
   S      +S   S  S     +H.                   a  S.  S    a  E    S    S.    +Q.    +S   S   S
|------------------------------------------|-12h13--10---12h13---12---10----(10)---(10)--------|
|----------------13b15-(13)pb15------------|--------------------------------------------13p=10-|
|-12pb14r(12)p10---------------------------|---------------------------------------------------|
|------------------------------------------|---------------------------------------------------|
|------------------------------------------|---------------------------------------------------|
|------------------------------------------|---------------------------------------------------|
|
| Gtr II
|  e           S  e             S H    +E        e     S       e    S     H             +E
|------------------------------------------|---------------------------------------------------|
|------------------------------------------|---------------------------------------------------|
|--7--------------7---------------7----(7)-|-----7-------------7----------7-------------(7)----|
|--7--------------7---------------7----(7)-|-----7-------------7----------7-------------(7)----|
|------------------------------------------|---------------------------------------------------|
|------------------------------------------|---------------------------------------------------|


                         ~~~~~~~~                           ~~~~
   E       S  E       S  Q   +Q    E     S      +S   S  S  +H          E  e
|--------------------15---------------|-----------------------------------------|
|-13b13.5-10-13b13.5----12--(12)------|-----------------------------------------|
|-------------------------------------|-12pb14r(12)p10-------------------10-----|
|-------------------------------------|----------------12-(12)-------/12--------|
|-------------------------------------|-----------------------------------------|
|-------------------------------------|-----------------------------------------|
|
|  e       S  e       S  H        +E     e           S  e      S H       +E
|-------------------------------------|-----------------------------------------|
|-------------------------------------|-----------------------------------------|
|--5----------5-----------------------|--7--------------7--------7-------(7)----|
|--5----------5----------5--------(5)-|--7--------------7--------7-------(7)----|
|------------------------5--------(5)-|-----------------------------------------|
|------------------------3------------|-----------------------------------------|


  Gtrs I, III
                  ~~~~~~~~~~~~~~~~~~        ~~~       ~~
   S      +S   S  S  +H         +E    E     Q.     E  Q   Q
|----------------13-(13)-------(13)------|------------------------|
|----------------------------------------|------------------------|
|-12pb14r(12)p10-------------------------|-14--------14--14pb16r==|
|----------------------------------------|------------------------|
|-----------------------------------/15--|-------/15--------------|
|----------------------------------------|------------------------|
|
| Gtr II
|  e           S  e      S H         +E     W
|----------------------------------------|------------------------|
|----------------------------------------|------------------------|
|--7--------------7--------7---------(7)-|------------------------|
|--7--------------7--------7---------(7)-|--3---------------------|
|----------------------------------------|--3---------------------|
|----------------------------------------|--1---------------------|
|
| Gtr IV
|                                           ~~~       ~~
|  H.                            E    E     Q.     E  Q   Q
|----------------------------------------|------------------------|
|----------------------------------------|-13--------13--13pb15r==|
|----------------------------------------|------------------------|
|-----------------------------------/15--|-------/15--------------|
|----------------------------------------|------------------------|
|----------------------------------------|------------------------|


  Gtrs I, III
   ~~~                    ~~~       ~~
   H.          +E    E    Q.     E  E  Q.
|----------------------|--8---------8--8pb10r==|
|----------------------|-----------------------|
|--------------(5)--/9-|--------/9-------------|
|----------------------|-----------------------|
|-15-------------------|-----------------------|
|----------------------|-----------------------|
|
| Gtr II
|  Q.   E  q    q         W
|---------------8------|-----------------------|
|---------12---10------|-----------------------|
|---------12---10------|--5--------------------|
|--3-------------------|--5--------------------|
|--3-------------------|--3--------------------|
|--1-------------------|-----------------------|
|
| Gtr IV
|  ~~~~~~~~~~~~~~~~       ~~~       ~~
|  H.          +E    E    Q.     E  E  Q.
|----------------------|-----------------------|
|----------------------|-17--------17-17pb18r==|
|----------------------|-----------------------|
|-15----------(15)-/19-|-------/19-------------|
|----------------------|-----------------------|
|----------------------|-----------------------|


                                ~~~~            ~~~~
    H.        E   E    +E.     +E.  E  +E.     +E.  E
|---8---------8--12-|-(12)b13r(12)-10-(10)b12r(10)--8---|
|-------------------|-----------------------------------|
|-------------------|-----------------------------------|
|-------------------|-----------------------------------|
|-------------------|-----------------------------------|
|-------------------|-----------------------------------|
|
|  +H.       +E   E     H               H
|-------------------|-----------------------------------|
|-------------------|-----------------------------------|
|--(5)-------(5)----|-----------------------------------|
|--(5)-------(5)----|---3---------------5---------------|
|--(3)-------(3)----|---3---------------5---------------|
|-------------------|---1---------------3---------------|
|
|   ~~~~                        ~~~~            ~~~~
|  +H.       +E   E    +E.     +E.  E  +E.     +E.  E
|----------------15-|-(15)b17r(15)-13-(13)b15r(13)-12---|
|-(17)------(17)----|-----------------------------------|
|-------------------|-----------------------------------|
|-------------------|-----------------------------------|
|-------------------|-----------------------------------|
|-------------------|-----------------------------------|


  Gtrs I, III
                ~~         ~~~     ~
   E.    +E.  E Q.    E    Q.    E Q  Q
|--8b10r=(8)------------|--7-------7--7b8---|
|-------------6-5----/8-|--------8----------|
|-----------------------|-------------------|
|-----------------------|-------------------|
|-----------------------|-------------------|
|-----------------------|-------------------|
|
| Gtr II
|  H            Q.    E   +W
|-----------------------|-------------------|
|-----------------------|-------------------|
|---------------5-----7-|-(7)---------------|
|--3------------5-----7-|-(7)---------------|
|--3------------3-----5-|-(5)---------------|
|--1--------------------|-------------------|
|
| Gtr IV
|               ~~         ~~~     ~
|  E.    +E.  E Q.    E    Q.    E Q  Q
|-12b13r(12)-10-8-------|-------------------|
|-----------------------|--8-------8--8b10--|
|--------------------/7-|-------/7----------|
|-----------------------|-------------------|
|-----------------------|-------------------|
|-----------------------|-------------------|


       ~~                ~~~       ~~
   S S H.           E    Q.     E  Q   Q
|--7p5----------------|------------------------|
|------6--------------|------------------------|
|---------------------|-14--------14--14pb16r==|
|---------------------|------------------------|
|-----------------/15-|-------/15--------------|
|---------------------|------------------------|
|
| +H.         +E    E    W
|---------------------|------------------------|
|---------------------|------------------------|
|-(7)---------(7)-----|------------------------|
|-(7)---------(7)-----|--3---------------------|
|-(5)---------(5)-----|--3---------------------|
|---------------------|--1---------------------|
|
|      ~~                ~~~       ~~
|  S S H.           E    Q.     E  Q   Q
|---------------------|------------------------|
|--8p6----------------|-13--------13--13pb15r==|
|------7--------------|------------------------|
|-----------------/15-|-------/15--------------|
|---------------------|------------------------|
|---------------------|------------------------|


  Gtrs I, III
   ~~~                    ~~~       ~~
   H.          +E    E    Q.     E  E  E.    +E.
|----------------------|--8---------8--8b10--(8)b10--|
|----------------------|-----------------------------|
|--------------(5)--/9-|--------/9-------------------|
|----------------------|-----------------------------|
|-15-------------------|-----------------------------|
|----------------------|-----------------------------|
|
| Gtr II
| +Q.   E  q    q         W
|---------------8------|-----------------------------|
|---------12---10------|-----------------------------|
|---------12---10------|--5--------------------------|
|-(3)------------------|--5--------------------------|
|-(3)------------------|--3--------------------------|
|-(1)------------------|-----------------------------|
|
| Gtr IV
|  ~~~~~~~~~~~~~~~~       ~~~       ~~
|  H.          +E    E    Q.     E  E  E.    +E.
|----------------------|-----------------------------|
|----------------------|-17--------17-17b18-(17)b18--|
|----------------------|-----------------------------|
|-15----------(15)-/19-|-------/19-------------------|
|----------------------|-----------------------------|
|----------------------|-----------------------------|


                               ~~~~            ~~~~
   H.        E   E    +E.     +E.  E  +E.     +E.  E
|--8---------8--12-|-(12)b13r(12)-10-(10)b12r(10)--8---|
|------------------|-----------------------------------|
|------------------|-----------------------------------|
|------------------|-----------------------------------|
|------------------|-----------------------------------|
|------------------|-----------------------------------|
|
| +H.       +E   E     H               H
|------------------|-----------------------------------|
|------------------|-----------------------------------|
|-(5)-------(5)----|-----------------------------------|
|-(5)-------(5)----|---3---------------5---------------|
|-(3)-------(3)----|---3---------------5---------------|
|------------------|---1---------------3---------------|
|
|  ~~~                         ~~~~            ~~~~
|  H.       +E   E    +E.     +E.  E  +E.     +E.  E
|---------------15-|-(15)b17r(15)-13-(13)b15r(13)-12---|
|-17-------(17)----|-----------------------------------|
|------------------|-----------------------------------|
|------------------|-----------------------------------|
|------------------|-----------------------------------|
|------------------|-----------------------------------|


  Gtrs I, III
                  ~             ~~~~~~~~~~~~~~~~~~~~~
    E.     +E.  E E S  E S E    H.         +Q
|---8b10r==(8)---------------|----------------------|
|---------------6-5----6---5-|-13b15------(13)pb15--|
|----------------------------|----------------------|
|----------------------------|----------------------|
|----------------------------|----------------------|
|----------------------------|----------------------|
|
| Gtr II
|   W                           W
|----------------------------|----------------------|
|----------------------------|----------------------|
|---7------------------------|--7-------------------|
|---7------------------------|--7-------------------|
|---5------------------------|--5-------------------|
|----------------------------|----------------------|
|
| Gtr IV
|                 ~             ~~~~~~~~~~~~~~~~~~~~~
|  +E.     +E.  E E S  E S E    H.         +Q
|-(12)b13r(12)-10-8---10---8-|----------------------|
|----------------------------|-17b18------(17)pb18--|
|----------------------------|----------------------|
|----------------------------|----------------------|
|----------------------------|----------------------|
|----------------------------|----------------------|


 ~~~~~~~~~
     W                E S E.    e S S S S S S S S
|-----------------||-------------------------------|
|---13b15---------||o------------------------------|
|-----------------||-------------------------------|
|-----------------||----------------------3p0------|
|-----------------||o-5-x-3b3.5-5---0h3-------3p0--|
|-----------------||-------------------------------|
|
| a  H       X          W
|-xs=xs======x----||-------------------------------|
|-xs=xs======x----||o------------------------------|
|-xs=xs======x----||-------------------------------|
|-xs=xs======x----||-------------------------------|
|-----------------||o------------------------------|
|-----------------||-------------------------------|
|
|~~~~~~~~~
|    W                E S E.    e S S S S S S S S
|-----------------||-------------------------------|
|---17b18---------||o---------------------6p3------|
|-----------------||--7-x-5b5.5-7---2h5-------5p2--|
|-----------------||-------------------------------|
|-----------------||o------------------------------|
|-----------------||-------------------------------|


  E S E.    e H    16x      W
|-------------------||-----------*|
|------------------o||-----------*|
|-------------------||-----------*|
|-------------------||-----------*|
|-5-x-3b3.5-5------o||-----------*|
|-------------------||-----------*|
|
| E S E.    e H    16x      W
|-------------------||-----------*|
|------------------o||-----------*|
|-7-x-5b5.5-7-------||-----------*|
|-------------------||-----------*|
|------------------o||-----------*|
|-------------------||-----------*|




--------------------------------------------------------------------------------


Duration Legend
---------------
W - whole; H - half; Q - quarter; E - 8th; S - 16th; T - 32nd; X - 64th; a - acciaccatura
+ - note tied to previous; . - note dotted; .. - note double dotted
Uncapitalized letters represent notes that are staccato (1/2 duration)
Irregular groupings are notated above the duration line
Duration letters will always appear directly above the note/fret number it represents the
duration for.  Duration letters with no fret number below them represent rests.  Multi-
bar rests are notated in the form Wxn, where n is the number of bars to rest for.  Low
melody durations appear below the staff

Tablature Legend
----------------
 h   - hammer-on
 p   - pull-off
 b   - bend
 pb  - pre-bend
 r   - bend release (if no number after the r, then release immediately)
 /\  - slide into or out of (from/to "nowhere")
 s   - legato slide
 S   - shift slide
<n> - natural harmonic
[n]  - artificial harmonic
n(n) - tapped harmonic
 ~   - vibrato
 tr  - trill
 T   - tap
 TP  - trem. picking
 PM  - palm muting
\n/  - tremolo bar dip; n = amount to dip
 \n  - tremolo bar down
 n/  - tremolo bar up
/n\  - tremolo bar inverted dip
 =   - hold bend; also acts as connecting device for hammers/pulls
 <> - volume swell (louder/softer)
 x   - on rhythm slash represents muted slash
 o   - on rhythm slash represents single note slash

Misc Legend
-----------
 |  - bar
||  - double bar
||o - repeat start
o|| - repeat end
*|  - double bar (ending)
 :  - bar (freetime)
 $  - Segno
 &  - Coda
Tempo markers - <E/E./Q/Q./H/H.> = BPM(8/16=s8/s16), where s8 = swing 8ths, s16 = swing 16ths
comments
We did not receive enough feedback on this tab! Please rate:
print report bad tab
1 2 3 4 5
1 comment total.
0 reply
|Guitarhead| wrote on June 6 2008, 05:24 pm

Awesome song, awesome tab. Thanks for this!

I want to post or [tab]
guest
You may want to rate the tab now too:
select rating
Please do not post tabs as comments. Select "correction" instead!