Oops, an error
Loading. Please wait.

Peace Tab

177 views 1 this week
no commentswrite comment
1 2 3 4 5
please rate
add to favorites launch autoscroll
font size
0
reset
Autoscroll
+/-
esc
set tempo
stop
WARNING: You are trying to view
                                    content from Ultimate-Guitar.com
                                    in an unauthorized application,
                                    which is prohibited.

                                    Please use an official Ultimate
                                    Guitar Tabs application for iPhone,
                                    iPad or Android to access legitimate
                                    chords, guitar, bass, and drum tabs
                                    from Ultimate-Guitar.com database.

                                    Type "ultimate guitar tabs" in Apple
                                    App Store's or Android Market's
                                    search to find the application.
Peace
by Wishbone Ash
from the album Bona Fide

Transcribed by Rob Watson robert.watson14@btinternet.com 
 

  E     B             A            E  E     B             A           E     E           B/E

E|--4-5-7----9-11-11b|12-------------|--4-5-7----9-11-11b|12----12b14-12---|14b16-16b17-r16---9-11|
B|-x--------x--------|-------12b14r12|-x--------x--------|---------------12|----------------------|
G|x--------x---------|---------------|x--------x---------|-----------------|----------------------|
D|-------------------|---------------|-------------------|-----------------|----------------------|
A|-------------------|---------------|-------------------|-----------------|----------------------|
E|-------------------|---------------|-------------------|-----------------|----------------------|

                                                           Section B

  A/E    E             E           B/E         A/E    E     E             C#m      D       Bm
                                                            0.33
E|11b12---------------|14b16-15h16h17-16------|-----------||4---------------------|--------------------|
B|-------12b14-r12--12|------------------17-16|17-17s19-17||--(7pb9)r7-5--7b9-r7-5|5s7-5-3-5b7-5b7-r5-3|
G|--------------------|-----------------------|-----------||----------------------|--------------------|
D|--------------------|-----------------------|-----------||----------------------|--------------------|
A|--------------------|-----------------------|-----------||----------------------|--------------------|
E|--------------------|-----------------------|-----------||----------------------|--------------------|

  C       Am           A B C D  E        C#m      D       Bm           C       Am       

E|--------------------|------2-|4------7-4-------|--------------------|-----------------|
B|3s5-3-1-3b5-3b5-r3-1|2-4-5---|---7b9------r7-5-|5s7-5-3-5b7-5b7-r5-3|3s5-3-1-3b5--r3-1|
G|--------------------|--------|-----------------|--------------------|-----------------|
D|--------------------|--------|-----------------|--------------------|-----------------|
A|--------------------|--------|-----------------|--------------------|-----------------|
E|--------------------|--------|-----------------|--------------------|-----------------|

            Section C

  A B C D   C         Gm          Dm      C  C         Gm          Dm      C     B
            1.05
            L Gtr
E|------2-||3--3-5--6-8b10--r8--6|8--6-5----|3--3-5--6-8b10--r8--6|8--6-5-------|-----------|
B|2-4-5---||---------------------|--------8-|---------------------|--------8-6-5|4----------|
G|--------||---------------------|----------|---------------------|-------------|-----------|
D|--------||---------------------|----------|---------------------|-------------|-----------|
A|--------||---------------------|----------|---------------------|-------------|-----------|
E|--------||---------------------|----------|---------------------|-------------|-----------|
 |        ||R Gtr                |          |                     |             |           |
E|--------||--------(12pb13)r12--|----------|---------------------|-------------|-----------|
B|--------||--------8-10b11-r10-8|10-8------|--------8-10b11-r10-8|10-8---------|-----------|
G|--------||9--9-10--------------|-----10-9-|9--9-10--------------|-----10-9-7-5|4----------|
D|--------||---------------------|----------|---------------------|-------------|-----------|
A|--------||---------------------|----------|---------------------|-------------|-----------|
E|--------||---------------------|----------|---------------------|-------------|-----------|

Section D

  E              C#m       D         Bm        C        Am       A B C D  
  L Gtr
E|4-----------------------|-------------------|-----------------|------2-|
B|--(7pb9)r7-5--7b9--r7--5|5s7-5-3---5b7--r5-3|3s5-3-1--3b5-r3-1|2-4-5---|
G|------------------------|-------------------|-----------------|--------|
D|------------------------|-------------------|-----------------|--------|
A|------------------------|-------------------|-----------------|--------|
E|------------------------|-------------------|-----------------|--------|
 |R Gtr                   |                   |                 |        |
E|------------------------|-------------------|-----------------|------5-|
B|10b12-r10--9-10b12-r10-9|9b10-r9-7-9b10-r9-7|7b8-r7-5-7b8-r7-5|5-7-8---|
G|------------------------|-------------------|-----------------|--------|
D|------------------------|-------------------|-----------------|--------|
A|------------------------|-------------------|-----------------|--------|
E|------------------------|-------------------|-----------------|--------|
   E         C#m                D         Bm             C        Am       A B C D 
  L Gtr
E|4--------7-------------------|------------------------|-----------------|------2-|
B|--7b9------7b9----------r7--5|5s7-5-3---5b7r5b7---r5-3|3s5-3-1--3b5-r3-1|2-4-5---|
G|-----------------------------|------------------------|-----------------|--------|
D|-----------------------------|------------------------|-----------------|--------|
A|-----------------------------|------------------------|-----------------|--------|
E|-----------------------------|------------------------|-----------------|--------|
 |R Gtr                        |                        |                 |        |
E|---------12------------------|------------------------|-----------------|------5-|
B|12-12b14----r12-(10pb12)r10-9|9b10-r9-7-9b10r9b10-r9-7|7b8-r7-5-7b8-r7-5|5-7-8---|
G|-----------------------------|------------------------|-----------------|--------|
D|-----------------------------|------------------------|-----------------|--------|
A|-----------------------------|------------------------|-----------------|--------|
E|-----------------------------|------------------------|-----------------|--------|

Solo 1
      C     Gm    Dm        C              C        Gm   Dm              C
      1.56
E|---|-----------|------------------------|-------------|-----------------------------|
B|---|-----------|---------------6p5------|8-----8------|----8-10---8h10-8-10---8h10--|
G|---|----------5|-7---5-7-5---5-----7---5|--7b9---(9)r7|7s9------9-----------9-------|
D|5-5|5-5-5-5s7--|---7-------7---------7--|-------------|-----------------------------|
A|---|-----------|------------------------|-------------|-----------------------------|
E|---|-----------|------------------------|-------------|-----------------------------|


  C               Gm        Dm              C              C                           Gm    

E|--------8-10----8--10b11-|----8-11b13-10b12--8----8h10-8|-15----------------------15----------8|
B|8--8s10------10----------|-10------------------10-------|----(15pb17)r15-13-15b17----r15--5s8--|
G|-------------------------|------------------------------|--------------------------------------|
D|-------------------------|------------------------------|--------------------------------------|
A|-------------------------|------------------------------|--------------------------------------|
E|-------------------------|------------------------------|--------------------------------------|

  Dm              C          B

E|10b11r10-8----------------|--------------------------------|
B|-----------10-8-----------|--------------------------------|
G|----------------s7----7---|--------------------------------|
D|-------------------10---10|9-------------------------------|
A|--------------------------|--------------------------------|
E|--------------------------|--------------------------------|

repeat Section D

 Solo 2

  E                    B      A        E   E                        B
  3.04
E|---------------------------|------------|-----------------------------------|
B|---------------------------|------------|----12b14r12b14r12b14r12b14r12---10|
G|-----------9s11s9s11s8-----|------------|--9----------------------------9---|
D|------9h11----------------9|s11-9-------|-----------------------------------|
A|-9s11----------------------|------12-11-|-----------------------------------|
E|---------------------------|------------|-----------------------------------|

  A          E                  E           B          A                      E

E|-----------------------------|----------------------|----------------------------------7|
B|10s9-10-12-------------------|---9b10r9s12----------|7b9r7b10-7b9-7b9r7p5---7---5--7s9--|
G|-----------11b13--9sd--------|-9---------------11---|---------------------6---6---------|
D|-----------------------------|--------------------13|-----------------------------------|
A|-----------------------------|----------------------|-----------------------------------|
E|-----------------------------|----------------------|-----------------------------------|

  E                    B          A    E
                                                                               art harmonic 16th fret
E|-----12-12-12s14-14-14-11------|9----------|----------------------------------4----|
B|9s12----------------------12---|--10-------|----------------12---------------------|
G|-----------------------------11|-----11s9--|--------9-11b13----r11-9----9----------|
D|-------------------------------|-----------|9-11b13------------------11---9--------|
A|-------------------------------|-----------|---------------------------------------|
E|-------------------------------|-----------|---------------------------------------|
comments
We did not receive enough feedback on this tab! Please rate:
1 2 3 4 5
I want to post or [tab]
guest
You may want to rate the tab now too:
select rating
Please do not post tabs as comments. Select "correction" instead!