Oops, an error
Loading. Please wait.

Phoenix Tab

ver1
ver1

Intro

Whole song

More versions @911Tabs.com
5,563 views 1 this week
no commentswrite comment
1 2 3 4 5
accurate
x 5
Autoscroll
+/-
esc
set tempo
stop
WARNING: You are trying to view
                                    content from Ultimate-Guitar.com
                                    in an unauthorized application,
                                    which is prohibited.

                                    Please use an official Ultimate
                                    Guitar Tabs application for iPhone,
                                    iPad or Android to access legitimate
                                    chords, guitar, bass, and drum tabs
                                    from Ultimate-Guitar.com database.

                                    Type "ultimate guitar tabs" in Apple
                                    App Store's or Android Market's
                                    search to find the application.
Phoenix
by Wishbone Ash
from the CD Wishbone Ash

Transcribed by Rob Watson robert.watson14@btinternet.com

Intro

              Em      C         D     G           A      D         G       C

  6/8                                                                            3/8
E|-----------|7---------7---0--|--------------7--|----------------|--------------|---7--8---|
B|-----------|0----------------|8s10-----8-10---8|----------------|----------7-8-|10--------|
G|-----------|9-----------9----|-----------------|9-------9b11r9-7|9-----7-9-----|----------|
D|-----------|-----------------|-----------------|----------------|--7h9---------|----------|
A|-----------|-----------------|-----------------|----------------|--------------|----------|
E|-----------|-----------------|-----------------|----------------|--------------|----------|

 Em     C       D7        G        A7             F#m              Em    C

  6/8                                                               9/8
E|10---10-8-7-8|8-8-7-8-7---------|--------------------------------|-------------------------|
B|-------------|----------10p8h10-|10b12-10b12-10b12-r10-8-10------|-------------------------|
G|-------------|------------------|---------------------------9----|9-----7-9---7-9----------|
D|-------------|------------------|--------------------------------|--7h9-----9-----9--------|
A|-------------|------------------|--------------------------------|-------------------------|
E|-------------|------------------|--------------------------------|-------------------------|

  Em   D    C                   Em   D    C                 Em  D   C                Em  D

E|---------|-------------------|---------|-----------------|-------|---------7-8-7--|10--8-7-8|
B|------7-8|8----7-8-10-8-7----|---------|-----------------|---12s8|10-------------8|---------|
G|----9----|----------------9--|7--------|-----------------|-------|---9------------|---------|
D|9-9------|-------------------|----9-7s5|7---7-5-4-5-4h5p4|-------|----------------|---------|
A|---------|-------------------|---------|-----------------|7------|----------------|---------|
E|---------|-------------------|---------|-----------------|-------|----------------|---------|

 C               Em     D   C               Em      D        C

E|7-------------|----------|---------------|----------------|-------------------------|
B|--10-8s7-8-7--|----------|---------------|----------------|-------------------------|
G|-------------9|9--7s4----|---------------|----------------|-------------------------|
D|--------------|-------7--|5---5-7-5p4-5-4|4------------4-5|7----5-4-5-4---4---------|
A|--------------|----------|---------------|----------------|-------------7-----------|
E|--------------|----------|---------------|----------------|-------------------------|

Verse

 |Em    D|C                     |Em      D         C                Em         D

  Bird        rise high from the cinders                                       Leave it all behind
E|-----------------------------|------------------|----------------|-------------------------|
B|-----------------------------|-------------5-7-8|8--8-7-8s7-5---5|5------------------------|
G|-----------------------------|------------------|-------------7--|--7----------------------|
D|-----------------------------|------------------|----------------|-------------------------|
A|-----------------------------|------------------|----------------|-------------------------|
E|-----------------------------|------------------|----------------|-------------------------|

 |C   C7        |Em             D      |C                |Em D   |C          |Em    D      |   
          
         All the ruins  and the fire
E|--------------|----------------------|---7-8-10-8-7----|-------|---7-8-10p7|10---15-14-12|
B|--------------|----------------------|--------------8--|----7-8|10---------|-------------|
G|--------------|----------------------|----------------9|7h9----|-----------|-------------|
D|--------------|----------------------|-----------------|-------|-----------|-------------|
A|--------------|----------------------|-----------------|-------|-----------|-------------|
E|--------------|----------------------|-----------------|-------|-----------|-------------|

 |C                      |Em   D   | C                  | Em  D  | C            | Em   D

                                                                                 Bird
E|12---------------------|---------|--------------------|--------|--------------|----------|
B|---15-12-12-12---------|---------|--------------------|----12s8|--10-8-7-8---7|7---------|
G|---------------14-12-11|---------|---11-12-14-12-14-12|11------|9----------9--|----------|
D|-----------------------|14-----14|14------------------|--------|--------------|----------|
A|-----------------------|----14---|--------------------|--------|--------------|----------|
E|-----------------------|---------|--------------------|--------|--------------|----------|

 |C                       |Em       D        C             Em      D

  raise your head from the ashes                                   Many men lay dead
E|------------------------|---------9----7--|-------------|-------------------------|
B|------------------------|-----------10---8|-------------|-------------------------|
G|------------------------|-------9---------|9---------7-9|-------------------------|
D|------------------------|-----------------|--9--7h9-----|-----------------9-7-----|
A|------------------------|-----------------|-------------|---------------------10--|
E|------------------------|-----------------|-------------|-------------------------|

  C       C7          Em            D    C                          Em          D

              You can see them like I 
E|-------------------|------------------|------------14------------|-------------------------|
B|-------------------|------------------|---------12----15-12------|-------------------------|
G|-------------------|------------------|------14-------------14-12|11------------------14p12|
D|7------------------|------------------|--------------------------|---14--------------------|
A|-------------------|------------------|--------------------------|-------------------------|
E|-------------------|------------------|--------------------------|-------------------------|

  C                  Em D         C                    Em      D          C

E|----------14-15-14|------------|--------------------|------------------|-------------------|
B|----12-15---------|12----------|------------------12|-------------15-12|---------12-13-15--|
G|14----------------|------------|---------11-12-14---|14b16--14b16------|14-12h14-----------|
D|------------------|----14p12-14|14-12h14------------|------------------|-------------------|
A|------------------|------------|--------------------|------------------|-------------------|
E|------------------|------------|--------------------|------------------|-------------------|

  Em      D           C                             Em      D         C

E|--------12b14-12b14|12b14-12b14-12-10------------|----------10-10sb|10---10-12-14-15-14-12---|
B|15b17--------------|------------------12---------|12--10-12--------|-----------------------15|
G|-------------------|---------------------11h12s14|-----------------|-------------------------|
D|-------------------|-----------------------------|-----------------|-------------------------|
A|-------------------|-----------------------------|-----------------|-------------------------|
E|-------------------|-----------------------------|-----------------|-------------------------|

  Em      D            C                              Em      D            

E|------------12-14-15|15--15-14-15-15b17-15b17-15b17|15b17-15b17-15b17-15b17--15-14-15-14-|
B|15b17-15b17---------|------------------------------|-------------------------------------|
G|--------------------|------------------------------|-------------------------------------|
D|--------------------|------------------------------|-------------------------------------|
A|--------------------|------------------------------|-------------------------------------|
E|--------------------|------------------------------|-------------------------------------|

  C                                  Em             D            

E|-------------15--17b19-17b19-17b19|17b19-17b19-17b19-17b19-17-15-17---|
B|15b17--15h17----------------------|---------------------------------17|
G|----------------------------------|-----------------------------------|
D|----------------------------------|-----------------------------------|
A|----------------------------------|-----------------------------------|
E|----------------------------------|-----------------------------------|

                                Em      D         C

E|------19p15----17-15---------|-----------------|------------------------|
B|17-17-------17-------19-17p15|---------15------|------------------------|
G|-----------------------------|16----14----14-12|11-12-11-9s7s9---7-9----|
D|-----------------------------|-----------------|---------------9-----9--|
A|-----------------------------|-----------------|------------------------|
E|-----------------------------|-----------------|------------------------|

repeat twice

  Em            D              C           Em           D               C

E|----------------------------|-----------|----------------------------|----------------|
B|----------------------------|-----------|----------------------------|----------------|
G|9-11-12s14-14s12-12s14-16s17|17---------|9-11-12s14-14s12-12s14-19s17|17--------------|
D|----------------------------|-----------|----------------------------|----------------|
A|7-9--10s12-12s10-10s12-14s15|15---------|7-9--10s12-12s10-10s12-17s15|15--------------|
E|----------------------------|-----------|----------------------------|----------------|

                                play next four bars twice
                                Em                   D            C              D
  Left Gtr                      4/4
E|-----------|------------12-14||14b15-14b15-(15)-14-12-12--12-14|14b15-14b15-14-12-12--12-14|
B|-----------|-----------------||--------------------------------|---------------------------|
G|-----------|-----------------||--------------------------------|---------------------------|
D|-----------|-----------------||--------------------------------|---------------------------|
A|-----------|-----------------||--------------------------------|---------------------------|
E|-----------|-----------------||--------------------------------|---------------------------|
 |           |                 ||                                |                           |
E|-----------|-----------------||--------------------------------|---------------------------|
B|-----------|------------12-12||15b17-15b17------15-12-12--12---|15b17-15b17-15-12--12-12-12|
G|-----------|-----------------||--------------------------------|---------------------------|
D|-----------|-----------------||--------------------------------|---------------------------|
A|-----------|-----------------||--------------------------------|---------------------------|
E|-----------|-----------------||--------------------------------|---------------------------|

 Em                   D            C        B7   Em            C              B7 Em

E|14b15-14b15-(15)-14-12-12-------|---------------------12-14||(14pb15)r14-12-14-12-----|
B|---------------------------12-14|14b15r14-12-14-12---------||-------------------------|
G|--------------------------------|--------------------------||-------------------------|
D|--------------------------------|--------------------------||-------------------------|
A|--------------------------------|--------------------------||-------------------------|
E|--------------------------------|--------------------------||-------------------------|
 |                                |                          ||                         |
E|--------------------------------|--------------------------||-------------------------|
B|15b17-15b17------15-12----------|---------------------12-12||-------------------------|
G|------------------------------12|14b16r14-12-14-12-----(12)||14b16r14-12-14-12--------|
D|---------------------------14---|--------------------(14)--||-------------------------|
A|--------------------------------|---------------------(x2)-||-------------------------|
E|--------------------------------|--------------------------||-------------------------|

 |Em  D    |Em D|C          Em          |     | repeat twin guitar section

  Phoenix   rise raise your head to the sky

Solo
      E5 E(b5) E     E(b5)  etc

E|---|--------|-------------|-------------|------------|----------|--------------|------------|
B|---|--------|-------------|-------------|------------|----------|------12----12|12--12------|
G|---|11------|--------11-12|14---14-12-11|----11-12-12|--12-14-14|---------12---|-------14-12|
D|-14|---14-14|14---14------|-------------|------------|----------|--------------|------------|
A|---|--------|-------------|-------------|------------|----------|--------------|------------|
E|---|--------|-------------|-------------|------------|----------|--------------|------------|

Riff 
      7.31     repeat many times
E|---|----------------|---------------------|
B|---|----------------|---------------------|
G|---|----------------|---------------------|
D|---|----------------|---------------------|
A|---|0-------1-------|2-1-0----------------|
E|0-3|--3--0-3--3--0-3|------3-2-1-0-0---0-3|

Solo over riff
  7.47
E|------------|------12h15p12----------------|-----------------------------|------12h15p12-15b17-r15-12---|
B|-15b17-15b17|15b17----------15b17--15-12-15|12----------------15b17-15b17|15b17-----------------------15|
G|------------|------------------------------|---14-12---------------------|------------------------------|
D|------------|------------------------------|---------14-14---------------|------------------------------|
A|------------|------------------------------|-----------------------------|------------------------------|
E|------------|------------------------------|-----------------------------|------------------------------|

E|-------------------------------------|------12h15p12--------------|------------------------------| etc
B|12-15-12------------------15b17-15b17|15b17----------15b17---12-15|12-15-12-------12--15b17-15b17|
G|---------14-12-12--------------------|----------------------------|---------12-14----------------|
D|------------------14-----------------|----------------------------|------------------------------|
A|-------------------------------------|----------------------------|------------------------------|
E|-------------------------------------|----------------------------|------------------------------|
comments
print report bad tab
I want to post or [tab]
guest
You may want to rate the tab now too:
select rating
Please do not post tabs as comments. Select "correction" instead!