Oops, an error
Loading. Please wait.

Real Guitars Have Wings Tab

914 views 3 this week
no commentswrite comment
1 2 3 4 5
please rate
add to favorites launch autoscroll
font size
0
reset
Autoscroll
+/-
esc
set tempo
stop
Contributor
Difficulty
intermediate
WARNING: You are trying to view
                                    content from Ultimate-Guitar.com
                                    in an unauthorized application,
                                    which is prohibited.

                                    Please use an official Ultimate
                                    Guitar Tabs application for iPhone,
                                    iPad or Android to access legitimate
                                    chords, guitar, bass, and drum tabs
                                    from Ultimate-Guitar.com database.

                                    Type "ultimate guitar tabs" in Apple
                                    App Store's or Android Market's
                                    search to find the application.
I didn't tab this, but it sounds awesome, so, here you go.

Transcribed by marc.rousseau@bdpme.fr

original URL:
http://www.wishboneash.net/tablatures/gtr_RGHW.html


 4/4
  Gtr I
  S S S S Q +S  S S S S S S S    S S S S Q +S  S S S S S S S
|-----------------------------|---------------------------------|
|---------5-(5)-6-5-----------|----5-----------6-5--------------|
|---4-5-7-----------7-5-4-----|------7-5-7-(7)-----7-5-4--------|
|-7-----------------------7-5-|--7-----------------------7-5----|
|-----------------------------|---------------------------------|
|-----------------------------|---------------------------------|


  H   +Q..        S    Q.     E    H
|--------------------|------------------|
|--------------------|------------------|
|--------------------|------------------|
|-7---(7)---------2h=|=3------2---------|
|--------------------|-------------5----|
|--------------------|------------------|


  S S S S Q  +S  S S S S S S S   S S S S Q  +S  S S S S S S S
|------------------------------|---------------------------------|
|---------5--(5)-6-5-----------|---5------------6-5--------------|
|---4-5-7------------7-5-4-----|-----7-5-7--(7)-----7-5-4--------|
|-7------------------------7-5-|-7------------------------7-5----|
|------------------------------|---------------------------------|
|------------------------------|---------------------------------|


  S S S S H    +E  E   E. S +E  E +H
|--------------------|-------------------|
|-------5------------|-------------------|
|-----5---7----(7)-4-|-9--7-(7)-4-(4)----|
|---7----------------|-------------------|
|-8------------------|-------------------|
|--------------------|-------------------|


  S S S S H    +E  E   E. S +E   E  +H
|--------------------|---------------------|
|-------5------------|---------------------|
|-----5---7----(7)-4-|-9--7-(7)-12-(12)----|
|---7----------------|---------------------|
|-8------------------|---------------------|
|--------------------|---------------------|


   S  S  S  S  H     +E   E    E.  S  +E   E  +H
|----------12---------------|------------------------|
|-------13----15----(15)-12-|-17--15-(15)-12-(12)----|
|----14---------------------|------------------------|
|-15------------------------|------------------------|
|---------------------------|------------------------|
|---------------------------|------------------------|


   S  S  S  S  H     +E   E
|----------12------------------|
|-------13----15----(15)-12----|
|----14------------------------|
|-15---------------------------|
|------------------------------|
|------------------------------|


   E.  S  +E   E  E.  S  +E   E    W           Q      S  S S S  H
|-------------------------------|-----------|----------------------||
|-17--15-(15)-12-17--15-(15)-12-|-13--------|-15b17--12-10-8---10--||
|-------------------------------|-----------|----------------9-----||
|-------------------------------|-----------|----------------------||
|-------------------------------|-----------|----------------------||
|-------------------------------|-----------|----------------------||


  S S S S Q  +S  S S S S S S S   S S S S Q  +S  S S S S S S S
|------------------------------|---------------------------------|
|---------5--(5)-6-5-----------|---5------------6-5--------------|
|---4-5-7------------7-5-4-----|-----7-5-7--(7)-----7-5-4--------|
|-7------------------------7-5-|-7------------------------7-5----|
|------------------------------|---------------------------------|
|------------------------------|---------------------------------|


  H    +Q.   S S    Q   +E  E E E E E
|----------------|--------------------|
|------------5-8-|-10--(10)-8-6-5-----|
|----------------|----------------7-5-|
|-7----(7)-------|--------------------|
|----------------|--------------------|
|----------------|--------------------|


  S S S S Q  +S  S S S S S S S   S S S S Q  +S  S S S S S E
|------------------------------|-------------------------------|
|---------5--(5)-6-5-----------|---5------------6-5------------|
|---4-5-7------------7-5-4-----|-----7-5-7--(7)-----7-5-4------|
|-7------------------------7-5-|-7------------------------7----|
|------------------------------|-------------------------------|
|------------------------------|-------------------------------|


  S S S S H    +E  E   E. S +E  E +H
|--------------------|-------------------|
|-------5------------|-------------------|
|-----5---7----(7)-4-|-9--7-(7)-4-(4)----|
|---7----------------|-------------------|
|-8------------------|-------------------|
|--------------------|-------------------|


  S S S S H    +E  E   E. S +E   E  +H
|--------------------|---------------------|
|-------5------------|---------------------|
|-----5---7----(7)-4-|-9--7-(7)-12-(12)----|
|---7----------------|---------------------|
|-8------------------|---------------------|
|--------------------|---------------------|


   S  S  S  S  H     +E   E    E.  S  +E   E  +H
|----------12---------------|------------------------|
|-------13----15----(15)-12-|-17--15-(15)-12-(12)----|
|----14---------------------|------------------------|
|-15------------------------|------------------------|
|---------------------------|------------------------|
|---------------------------|------------------------|


   S  S  S  S  H     +E   E
|----------12------------------|
|-------13----15----(15)-12----|
|----14------------------------|
|-15---------------------------|
|------------------------------|
|------------------------------|


   E.  S  +E   E  E.  S  +E   E     S S S S  S  S S S S S S S  S  S S S
|-------------------------------||----------------8-8---------------8-8-|
|-17--15-(15)-12-17--15-(15)-12-||o---------10-10-------------10-10-----|
|-------------------------------||------9-9---------------9-9-----------|
|-------------------------------||--7-7---------------7-7---------------|
|-------------------------------||o-------------------------------------|
|-------------------------------||--------------------------------------|


  S S S S  S  S S S S S S S  S  S S S
|---------------8-8---------------8-8---|
|---------10-10-------------10-10-------|
|-----9-9---------------9-9-------------|
|-7-7---------------7-7-----------------|
|---------------------------------------|
|---------------------------------------|


  S S S S  S  S S S S S S S  S  S S S
|---------------8-8---------------8-8-|
|---------10-10-------------10-10-----|
|-----9-9---------------9-9-----------|
|-7-7---------------7-7---------------|
|-------------------------------------|
|-------------------------------------|


  S S S S  S  S S S S S S S  S  S S S     3x
|---------------8-8---------------8-8-----||
|---------10-10-------------10-10--------o||
|-----9-9---------------9-9---------------||
|-7-7---------------7-7-------------------||
|----------------------------------------o||
|-----------------------------------------||


  W          Q  S S S S H      S S S S Q  +S  S S S S S S S
|----------|-----------------|------------------------------|
|----------|-5---------------|---------5--(5)-6-5-----------|
|-2--------|----7-5p4--------|---4-5-7------------7-5-4-----|
|-2--------|----------7-7----|-7------------------------7-5-|
|-0--------|-----------------|------------------------------|
|----------|-----------------|------------------------------|


  S S S S Q  +S  S S S S S S S
|-------------------------------|
|---5------------6-5------------|
|-----7-5-7--(7)-----7-5-4------|
|-7------------------------7-5--|
|-------------------------------|
|-------------------------------|


  H    +Q.   S S    Q   +E  E E E E E
|----------------|--------------------|
|------------5-8-|-10--(10)-8-6-5-----|
|----------------|----------------7-5-|
|-7----(7)-------|--------------------|
|----------------|--------------------|
|----------------|--------------------|


  S S S S Q  +S  S S S S S S S   S S S S Q  +S  S S S S S E
|------------------------------|----------------------------|
|---------5--(5)-6-5-----------|---5------------6-5---------|
|---4-5-7------------7-5-4-----|-----7-5-7--(7)-----7-5-4---|
|-7------------------------7-5-|-7------------------------7-|
|------------------------------|----------------------------|
|------------------------------|----------------------------|


  S S S S H    +E  E   E. S +E  E +H
|--------------------|-------------------|
|-------5------------|-------------------|
|-----5---7----(7)-4-|-9--7-(7)-4-(4)----|
|---7----------------|-------------------|
|-8------------------|-------------------|
|--------------------|-------------------|


  S S S S H    +E  E   E. S +E   E  +H
|--------------------|---------------------|
|-------5------------|---------------------|
|-----5---7----(7)-4-|-9--7-(7)-12-(12)----|
|---7----------------|---------------------|
|-8------------------|---------------------|
|--------------------|---------------------|


   S  S  S  S  H     +E   E    E.  S  +E   E  +H
|----------12---------------|------------------------|
|-------13----15----(15)-12-|-17--15-(15)-12-(12)----|
|----14---------------------|------------------------|
|-15------------------------|------------------------|
|---------------------------|------------------------|
|---------------------------|------------------------|


   S  S  S  S  H     +E   E
|----------12------------------|
|-------13----15----(15)-12----|
|----14------------------------|
|-15---------------------------|
|------------------------------|
|------------------------------|


   E.  S  +E   E  E.  S  +E   E   S S S S H    +E  E
|-------------------------------|--------------------|
|-17--15-(15)-12-17--15-(15)-12-|-------5------------|
|-------------------------------|-----5---7----(7)-4-|
|-------------------------------|---7----------------|
|-------------------------------|-8------------------|
|-------------------------------|--------------------|


  E. S +E  E +H       S S S S H    +E  E   E. S +E   E  +H
|-------------------|--------------------|---------------------|
|-------------------|-------5------------|---------------------|
|-9--7-(7)-4-(4)----|-----5---7----(7)-4-|-9--7-(7)-12-(12)----|
|-------------------|---7----------------|---------------------|
|-------------------|-8------------------|---------------------|
|-------------------|--------------------|---------------------|


   S  S  S  S  H     +E   E    E.  S  +E   E  +H
|----------12---------------|------------------------|
|-------13----15----(15)-12-|-17--15-(15)-12-(12)----|
|----14---------------------|------------------------|
|-15------------------------|------------------------|
|---------------------------|------------------------|
|---------------------------|------------------------|


   S  S  S  S  H     +E   E
|----------12------------------|
|-------13----15----(15)-12----|
|----14------------------------|
|-15---------------------------|
|------------------------------|
|------------------------------|


   E.  S  +E   E  E.  S  +E   E    W
|-------------------------------|-----||----|
|-17--15-(15)-12-17--15-(15)-12-|-13--||----|
|-------------------------------|-----||----|
|-------------------------------|-----||----|
|-------------------------------|-----||----|
|-------------------------------|-----||----|

comments
We did not receive enough feedback on this tab! Please rate:
1 2 3 4 5
I want to post or [tab]
guest
You may want to rate the tab now too:
select rating
Please do not post tabs as comments. Select "correction" instead!