Oops, an error
Loading. Please wait.

Black Saint Tab

2,576 views 15 this week
no commentswrite comment
1 2 3 4 5
excellent!
x 3
Autoscroll
+/-
esc
set tempo
stop
Contributor
Hey! There's an official Ultimate Guitar app which is ideal
for learning songs when you're away from computer. Get the app
WARNING: You are trying to view
                                    content from Ultimate-Guitar.com
                                    in an unauthorized application,
                                    which is prohibited.

                                    Please use an official Ultimate
                                    Guitar Tabs application for iPhone,
                                    iPad or Android to access legitimate
                                    chords, guitar, bass, and drum tabs
                                    from Ultimate-Guitar.com database.

                                    Type "ultimate guitar tabs" in Apple
                                    App Store's or Android Market's
                                    search to find the application.
intro
e|---------------------------------------------------------------|
B|---------------------------------------------------------------|
G|---------------------------------------------------------------|
D|---------------------------------------------------------------|
A|-5----5----5/6--\3----3/5-5----5-6---\3------5---5/6--6\5-5----|
E|-3----3----3/4--\1----1/3-3----3-4---\1------3---3/4--4\3-3----|

----------------------|
----------------------|
----------------------|
----------------------|
-5\3-3-----7--7--7--7-|
-3\1-1-----5--5--5--5-|
     Bass comes in

riff 1 (verse 1)
e|-----------------------------------------------|
B|-----------------------------------------------|
G|-----------------------------------------------|
D|-----------------------------------------------| x4
A|-7----7----7/10-10--10/12-12--12---12-12-12/13-|
E|-5----5----5/8---8---8/10-10--10---10-10-10/11-|

riff 2
e|--------------------|
B|--------------------|
G|--------------------| x4
D|--------------------|
A|-7--10p7-10p7---7---|
E|-5------------8-5---|

verse 2
e|-----------------------------------------------|
B|-----------------------------------------------|
G|-----------------------------------------------|
D|-----------------------------------------------| x4
A|-7----7----7/10-10--10/12-12--12---12-12-12/13-|
E|-5----5----5/8---8---8/10-10--10---10-10-10/11-|


e|--------------------|
B|--------------------|
G|--------------------| x4
D|--------------------|
A|-7--10p7-10p7---7---|
E|-5------------8-5---|

riff 3
e|---------------------------------|
B|---------------------------------|
G|---------------------------------|
D|---------------------------------| x3
A|-13-13p12-12p10-8h10-7---7---7---|
E|-------------------------5---5---|

riff 4
e|-------------------|
B|-------------------|
G|-------------------|
D|-------------------|
A|-7-8-7-5--7---7----|
E|----------5---5----|
                            1,2       3
e|------------------------|---------|-----------|
B|------------------------|---------|-----------|
G|------------------------|---------|-----------|
D|------------------------|---------|-----------| 3x
A|-13-13p12-12p10-8h10-7--|-7---7---|-10---10---|
E|------------------------|-5---5---|-8----8----|

e|-----------------------------------------------------|
B|-----------------------------------------------------|
G|-----------------------------------------------------|
D|-----------------------------------------------------|
A|-7-8-7-5--7---7------------(5)-----------------7-----|
E|----------5---5------------(3)-----------------5-----|
 |
 | guitar 2
e|-----------------------------------------------------|
B|-----------------------------------------------------|
G|-----------------------------------------------------|
D|---------------------------------10b12p8-10b12-8~----|
A|-----------------------------------------------------|
E|-----------------------------------------------------|

verse 3
e|-----------------------------------------------|
B|-----------------------------------------------|
G|-----------------------------------------------|
D|-----------------------------------------------| x4
A|-7----7----7/10-10--10/12-12--12---12-12-12/13-|
E|-5----5----5/8---8---8/10-10--10---10-10-10/11-|

   over riff 2
e|--------------------------------------------------------------|
B|--------------------------------------------------------------|
G|--------------------------------------------------------------|
D|--10h12-10~~~~---10h12-10~~~~---10h12-10\9~~~--12-9-12--9~~~--|
A|--------------------------------------------------------------|
E|--------------------------------------------------------------|

Verse 4 (weird, i know)
e|----------------------------------------------------------|
B|----------------------------------------------------------|
G|----------------------------------------------------------|
D|----------------------------------------------------------|  x4
A|-12--10--8h10p8-7--5--5-7-8-10--10-8-7-8-12-10-8-10-------|
E|----------------------------------------------------------|

   over riff 2
e|-------------------------------------------------------|
B|-15b17~~-----------------------------------------------|
G|----------14-16-14~~~~--14p12h14~~~--------------------|
D|-------------------------------------14p12h14-14~~~----|
A|-------------------------------------------------------|
E|-------------------------------------------------------|

transition out of lead
e|------------------------------------------------------|
B|------------------------------------------------------|
G|------------------------------------------------------|
D|------------------------------------------------------|
A|-8p6p5-5-6-8-6-5--7-7-7-7/8-8/10-10p8-8p7-8p7-8p7-8p7-|
E|------------------------------------------------------|

e|-------------------    --------------|
B|-------------------    --------------|
G|-------------------    --------------|
D|-------------------    --------------|
A|-7--------6-------- x4 -7-7-7--6-6-6-| x4
E|-5--------4--------    -5-5-5--4-4-4-|

        x4
e|----------------------------------------------------------------------------|
B|----------------------------------------------------------------------------|
G|----------------------------------------------------------------------------|
D|----------------------------------------------------------------------------|
A|-7-7--8p6p5---8p6p5---8p6p5---8p6p5---6--8p6p5---8p6p5---8p6p5---8p6p5---6--|
E|-5-5--------5-------5-------5-------5-4--------4-------4-------4-------4-4--|
  only play the first A the first time...

E|---------------------------------|
B|---------------------------------|
G|-14-13-12-11-10h12p10-9h10p9-7---|
D|---------------------------------|
A|---------------------------------|
E|---------------------------------|

        x4
e|----------------------------------------------------------------------------|
B|----------------------------------------------------------------------------|
G|----------------------------------------------------------------------------|
D|----------------------------------------------------------------------------|
A|-7-7--8p6p5---8p6p5---8p6p5---8p6p5---6--8p6p5---8p6p5---8p6p5---8p6p5---6--|
E|-5-5--------5-------5-------5-------5-4--------4-------4-------4-------4-4--|

E|---------------------------------|
B|---------------------------------|
G|-14-13-12-11-10h12p10-9h10p9-7---|
D|---------------------------------|
A|---------------------------------|
E|---------------------------------|

       x4
e|-------------------------------------------------------------------------|
B|-------------------------------------------------------------------------|
G|-15p14p12-15p14p12-15p14p12-15p14p12-14p12p11-14p12p11-14p12p11-14p12p11-|
D|-------------------------------------------------------------------------|
A|-------------------------------------------------------------------------|
E|-------------------------------------------------------------------------|

E|---------------------------------|
B|---------------------------------|
G|-14-13-12-11-10h12p10-9h10p9-7---|
D|---------------------------------|
A|---------------------------------|
E|---------------------------------|

           x4
e|-18p17p15-18p17p15-18p17p15-18p17p15-16p14p13-16p14p13-16p14p13-16p14p13-|
B|-------------------------------------------------------------------------|
G|-------------------------------------------------------------------------|
D|-------------------------------------------------------------------------|
A|-------------------------------------------------------------------------|
E|-------------------------------------------------------------------------|

E|-------------------------------------|
B|-17-16-15-14-13h15p13-12h13p12-10----|
G|-------------------------------------|
D|-------------------------------------|
A|-------------------------------------|
E|-------------------------------------|

lead break left channel
e|----7----7----7---------------------------------------------------------------|
B|-10---10---10---10~~--10  whammy vibrato   8~~~10~~~X\-8-8h10h11-10h11h3------|
G|------------------------------------------------------------------------------|
D|------------------------------------------------------------------------------|
A|------------------------------------------------------------------------------|
E|------------------------------------------------------------------------------|

8--10p8p6-6h8h10----|
-----------------8--|
--------------------|
--------------------|
--------------------|
--------------------|

e|---------------------------------------------------8h10h11-|
B|-13p11p10-8h10h11-8h10h11-6h8h10-6--6h8h12-8h10h11---------|
G|-----------------------------------------------------------|
D|-----------------------------------------------------------|
A|-----------------------------------------------------------|
E|-----------------------------------------------------------|

10h11h13p11p10-10--8--8h10h11-10h11h13-11h13h15-15b--|
-----------------------------------------------------|
-----------------------------------------------------|
-----------------------------------------------------|
-----------------------------------------------------|
-----------------------------------------------------|


-12~~~10h12p10----------------------8--12~~~14-15b17r15b17-|
---------------12h13p12-10-------10------------------------|
-----------------------------------------------------------|
-----------------------------------------------------------|
-----------------------------------------------------------|
-----------------------------------------------------------|

15h17p15-15h17p15--------------------------------|
------------------15~~~~~~~~~~15---13h15p13-10---|
-------------------------------------------------|
-------------------------------------------------|
-------------------------------------------------|
-------------------------------------------------|

e|-18p15h18--20p17h20-20b22r20b22-|
B|--------------------------------|
G|--------------------------------|
D|--------------------------------|
A|--------------------------------|
E|--------------------------------|

Lead Break Right Channel
e|------------------------------------------------------8-----|
B|-10~~~~~~~~~~~~~~~~~~~~~~~~~~~~~~~~~~~~~~~~~~~~~~~~10---10--|
G|------------------------------------------------------------|
D|------------------------------------------------------------|
A|------------------------------------------------------------|
E|------------------------------------------------------------|

10b12~~~~~~~~~~~~~~~--8----8-------------10b12-15b17-|
------------------------10---10-10~~~~~~-------------|
-----------------------------------------------------|
-----------------------------------------------------|
-----------------------------------------------------|
-----------------------------------------------------|


-10b12~~8--------10b12--15b17-------------19b21r19b21r19b21-|
----------10------------------------------------------------|
------------------------------------------------------------|
------------------------------------------------------------|
------------------------------------------------------------|
------------------------------------------------------------|


ending riff
e|--------------------------------------|
B|--------------------------------------|
G|--------------------------------------|
D|--------------------------------------|
A|-7--7-7-7-7-7-7-7-7-10--12---8---10---|
E|-5--5-5-5-5-5-5-5-5-8---10---6---8----|

end
e|--------------------------------------------------------------------|
B|--------------------------------------------------------------------|
G|--------------------------------------------------------------------|
D|--------------------------------------------------------------------|
A|----10-8-12-10-10-8-12-10-10-8-12-10-10-8-12-10-7--7-7-7-7-7--7--7--|
E|-----8-6-10-8---8-6-10-8---8-6-10-8---8-6-10-8--5--5-5-5-5-5--5--5--|
comments
We did not receive enough feedback on this tab! Please rate:
print report bad tab
1 2 3 4 5
I want to post or [tab]
guest
You may want to rate the tab now too:
select rating
Please do not post tabs as comments. Select "correction" instead!