Oops, an error
Loading. Please wait.

Changing Tab

ver2
ver2

Whole song

More versions @911Tabs.com
4,958 views 12 this week
4 commentsread comments
1 2 3 4 5
excellent!
x 6
Autoscroll
+/-
esc
set tempo
stop
Contributor
Difficulty
intermediate
NEW! There's an official Ultimate Guitar app which is ideal
for learning songs when you're away from computer. Get the app
WARNING: You are trying to view
                                    content from Ultimate-Guitar.com
                                    in an unauthorized application,
                                    which is prohibited.

                                    Please use an official Ultimate
                                    Guitar Tabs application for iPhone,
                                    iPad or Android to access legitimate
                                    chords, guitar, bass, and drum tabs
                                    from Ultimate-Guitar.com database.

                                    Type "ultimate guitar tabs" in Apple
                                    App Store's or Android Market's
                                    search to find the application.
-------------------------------------------------------------------------------
                             Changing - Witch
         Band Website:      http://www.teepeerecords.com/bands/witch/
-------------------------------------------------------------------------------
Tabbed by: leech3

This song is awesome. I tabbed the whole song, there is nothing missing!
It is accurate I believe, except for a few notes from the intro and a few bits at the end.
There are two guitars playing through the song, except for the intro, and even a third
I tabbed the third guitar separately since it plays the solo and some loud overdubs, but
two other play almost the same thing so I was unable to distinguish them. It's just 
variations mostly.

Standard Tuning.

The song has numerous parts and is quite long, so here's the structure
and below i have tabbed each part separately.


-----------------------------
Intro (x2)

Verse 1
Riff A (4 bars)
Riff B (20 bars (3/4!))
Verse 2
Riff A (4 bars)
Riff B (20 bars (3/4!))

Bridge A (8 bars)
"More brige A" (16 bars)

Verse 3
Riff A (4 bars)
Riff B (20 bars (3/4!))

Bridge B (4 bars)
"More Bridge B" (8 bars)

Solo (~32 bars)

Intro (x2)
Riff A (4 bars)
Variation of Riff A (8 bars)
The End
-----------------------------


INTRO (there's no beat, so no strict timing)

e|----------------------------------------------------|-------------------------------|
B|----------------------------------------------------|-------------------------------|
G|--------------11(p)--9------------------------------|-7-----------6h7~-7------------|
D|--9---9----9-------9----/12---9h12p9-9---/12-12\9\5-|-7----7/9-9---------9--7h9p7---|
A|--7---7---------------------------------------------|-5--------------------------10\|
E|-(0)-(0)--------------------------------------------|-------------------------------|


e|-----------------------------|-----|
B|-----------------------------|-----|
G|-----------------------------|-----|
D|-7---------------6h7~~\4\2-0-|-2---|
A|-7-------7/9-10--------------|-2---|
E|-5---------------------------|-0---|

Play twice.

VERSE

Riff A (two guitars)
     '    '      '     '
e|---------------------------|----------------------------|
B|---------------------------|----------------------------|
G|---------------------------|----------------------------|
D|------9-9/10\9-8-----------|------9-9/10\9-8------------|x2
A|---7-------------10--10-9~-|---7-------------10--10-9~--|
E|--(0)----------------------|--(0)-----------------------|


After the first two times a third guitar plays the same riff, slightly morphed, one
higher :
     '    '            '     '
e|---------------------------------|---------------------------------||-----------|
B|-----12-12b(13)r-12-11~~~--------|-----12-12b(13)r-12-11~~~--------||-----------|
G|---9-----------------------12-11-|---9-----------------------12-11-||-9~--------|
D|---------------------------------|---------------------------------||-----------|
A|---------------------------------|---------------------------------||-----------|
E|---------------------------------|---------------------------------||-----------|
                                                                       Riff B


Riff B (two guitars). Here it changes to 3/4 timing.

    '  '   '   '     '          '       '  '   '   '     '          '
e|-----------|-----------------------|-----------|---------------------|
B|-----------|-----------------------|-----------|---------------------|
G|--9--x-9-9-|-x-x-------------(10)--|--9--x-9-9-|-x-x-------------(10)|
D|--9--x-9-9-|-x-x--(10)-(12)--(10)--|--9--x-9-9-|-x-x--(10)-(12)--(10)| x5
A|--7--x-7-7-|-x-x--(10)-(12)---8----|--7--x-7-7-|-x-x--(10)-(12)---8--|
E|-----------|-------8----10---------|-----------|-------8----10-------|

                                                                         etc.


Bridge A (01:45)
   '      '        '           '        '          '      '        '
e|------------------------------------|-------------------------------------|
B|------------------------------------|-------------------------------------|
G|-9----9-9--9--9--9/12-12-12-12--9-9-|-9/11-11-11-11-----9-9h11p9----------|
D|-9----9-9--9--9--9/12-12-12-12--9-9-|-9/11-11-11-11--------------10-9\7/9~|   x4
A|-7----7-7--7--7--7/10-10-10-10--7-7-|-7/9--9--9--9------------------------|
E|------------------------------------|-------------------------------------|

"More Bridge A" (02:07)

    '   '         '    '           '  '  '  '
e|-------------------------------|------------|-----------------------------|------------|
B|-------------------------------|------------|-----------------------------|------------|
G|--9~--9~-8h9p8-/12~--12~9h12p9-|-8~-8~-9~---|-9~--9~8h9p8-/12~--12~9h12p9-|-8~-8~-9~---|
D|-------------------------------|----------9~|-----------------------------|----------9~|
A|-------------------------------|------------|-----------------------------|------------|
E|-------------------------------|------------|-----------------------------|------------|
    '   '             '    '           '  '  '  '
e|-----------------------------------|------------|-----------------------------|------------|
B|--12~-12~-11h12p11-----------------|------------|-----------------------------|------------|
G|-------------------/12~--12~9h12p9-|-8~-8~-9~---|-9~--9~8h9p8-/ 2~--12~9h12p9-|-8~-8~-9~---|
D|-----------------------------------|----------9~|-----------------------------|----------9~|
A|-----------------------------------|------------|-----------------------------|------------|
E|-----------------------------------|------------|-----------------------------|------------|

x2 (the whole thing)

The second guitar plays the same riff one octave deeper, but it is slightly morphed. It
more like a bass line actually, but played by the guitar.
It's quite quiet and I haven't bothered to figure it out exactly.

Bridge B (03:21)

   '    '     '     '
e|-----------------------|
B|-----------------------|
G|-----------------------|
D|-9----9----------------| x1
A|-7----7---------5---5--|
E|-0----0-----5h7---7----|

    '    '    '     '
e|-----------------------|
B|-----------------------|
G|-----------------------|
D|-----------------------|x3
A|--7----7--------5---5--|
E|---(0)------5h7---7----|

Only one guitar plays that low E, so I put it in brackets.

"More Bridge B" (03:31)

     '    '    '           '
e|-----------x-12------------------|-----------x-12------------------|
B|----------------15-13-12---------|----------------15-13-12---------|
G|-------------------------14--12--|-------------------------14--12--|
D|---14--14------------------------|---14--14------------------------|x2
A|---------------------------------|---------------------------------|
E|---------------------------------|---------------------------------|

     '    '    '           '
e|-----------x-17-15---------------|-----------x-17-15---------------|
B|-------------------17-15---------|-------------------17-15---------|
G|-------------------------17--16--|-------------------------17--16--|
D|---17--17------------------------|---17--17------------------------|x2
A|---------------------------------|---------------------------------|
E|---------------------------------|---------------------------------|

Solo (03:51)

The two guitars still play the first part of Bridge B ad lib during the solo.
The solo is very much "cobain-like", so it's quite simple. Just one string most of the time.

This is only approximate, it's quite difficult to make out the notes at the very end.
You have to play 16 notes/bar (I think, I'm not quite sure).
Well just play fast :D
At the end of the solo two strings are played. If you listen closely you'll hear that he
always strike both! It is quite subtle but thats how he gets that fuzzy effect.
That part might not be a 100% accurate but I believe it's really close.

e|-------------|-----------|-----------|-----------|
B|-------------|-----------|-----------|-----------|
G|-12###\11###\|-8###/9###\|-4###/5###/|-8###/9###/|
D|-------------|-----------|-----------|-----------|
A|-------------|-----------|-----------|-----------|
E|-------------|-----------|-----------|-----------|
(03:51)

e|-------------|-----------|-----------|-----------|
B|-------------|-----------|-----------|-----------|
G|-12###\11###\|-8###/9###\|-4###/5###/|-8###/9###/|
D|-------------|-----------|-----------|-----------|
A|-------------|-----------|-----------|-----------|
E|-------------|-----------|-----------|-----------|
(04:00)

e|-------------|-------------|-----------|-----------|
B|-------------|-------------|-----------|-----------|
G|-12###/14###\|-11###/12###\|-8###/9###\|-4###/5###/|
D|-------------|-------------|-----------|-----------|
A|-------------|-------------|-----------|-----------|
E|-------------|-------------|-----------|-----------|
(04:09)

e|-----------|-----------|-----------|------------|
B|-----------|-----------|-----------|------------|
G|-8###/9###\|-5###/8###\|-4###/5###\|-2###/4#/5#/|
D|-----------|-----------|-----------|------------|
A|-----------|-----------|-----------|------------|
E|-----------|-----------|-----------|------------|
(04:18)               ...speeding up...

e|-------------|-------------|-----------|------------|
B|-------------|-------------|-----------|------------|
G|-8#/9#\8#/9#/|-12###\11###\|-8###/9###\|-5#\4##/5###|
D|-------------|-------------|-----------|------------|
A|-------------|-------------|-----------|------------|
E|-------------|-------------|-----------|------------|
(04:27)

e|-----------|-----------|-----------|------------|
B|-----------|-----------|-----------|------------|
G|-8###/9###\|-9########\|-8########\|-7########\-|
D|-----------|--10######\|-9########\|-8########\-|
A|-----------|-----------|-----------|------------|
E|-----------|-----------|-----------|------------|
(04:35)

e|-----------|-----------|-----------|------------|
B|-----------|-----------|-----------|------------|
G|-6########\|-5########\|-4########\|-3########\-|
D|-7########\|-6########\|-5########\|-4########\-|
A|-----------|-----------|-----------|------------|
E|-----------|-----------|-----------|------------|
(04:44)

e|-----------|-----------|-------|
B|-----------|-----------|-------|
G|-2########\|-2########\|-------|
D|-3########\|-3########\|-2-----|
A|-----------|-----------|-2-----|
E|-----------|-----------|-0-----|
(04:52)

Solo end

Variation of Riff A (06:00)
Guitar 1 and 2 still play Riff A (I think ^^ )
Guitar 3 plays:

    '    '         '        '
e|--------------------------------|
B|----12-12/13\12-11b12r11--------|
G|--9-----------------------12-11-|
D|--------------------------------|4x
A|--------------------------------|
E|--------------------------------|
              strange bend or slide, not accurate
And then:

e|---------------------------|
B|---------------------------|
G|---------------------------|
D|-----7h9-7-----------------|4x
A|--7--------10/12\10--9--10-|
E|---------------------------|

The End

e|---------|
B|---------|
G|--9-9----|
D|--9-9----|
A|--7-7----|
E|-(0)-----|


This is my first tab. I'm sorry if I didn't stick to all usual conventions.
I hope you enjoyed it, and feel free to message me if there's anything you want to let
know or you'd like to know.
comments
print report bad tab
4 comments total. Showing first comments.
+1 reply
FMDC wrote on December 17 2007, 06:09 pm

Dude, your Changing tabs kicks the shit out of my Changing tab

0 reply
leech3 wrote on December 18 2007, 08:54 am

Thanks, i appreciate your comment.
It's still not perfect however :(

+2 reply
FYFool wrote on December 28 2007, 05:59 pm

This is absolutely perfect. You da man! Now do the rest of the album!

I want to post or [tab]
guest
You may want to rate the tab now too:
select rating
Please do not post tabs as comments. Select "correction" instead!