Oops, an error
Loading. Please wait.

Encryption Tab

129 views 3 this week
1 commentread comment
1 2 3 4 5
excellent!
x 2
add to favorites launch autoscroll
font size
0
reset
Autoscroll
+/-
esc
set tempo
stop
Contributor
Difficulty
Tuning
advanced
C G C F A D
WARNING: You are trying to view
                                    content from Ultimate-Guitar.com
                                    in an unauthorized application,
                                    which is prohibited.

                                    Please use an official Ultimate
                                    Guitar Tabs application for iPhone,
                                    iPad or Android to access legitimate
                                    chords, guitar, bass, and drum tabs
                                    from Ultimate-Guitar.com database.

                                    Type "ultimate guitar tabs" in Apple
                                    App Store's or Android Market's
                                    search to find the application.
With Passion
Encryption
C-G-C-F-A-D
TABBED BY-andherembrace
*=palm mute


tab includes all parts for both gtrs
with an included timeline so its easy to follow


                                               0:04
BOTH
----------------------------------------------------|
----------------------------------------------------|
----------------------------------------------------|
------------------*-*-*-*-------------------*-*-*---|
-1-*-*-*-4-*-*-*--1-3-4-0--1-*-*-*-4-*-*-*--1-3-4---|
---3-1-0---3-1-0--1-3-4-0----3-1-0---3-1-0--1-3-4---|


0:04                                                              0:08
L
---------------------------------------------------------------------|
---------------------------------------------------------_______-----|
---------------------------------------------_______----/       \----|
------------------*-*-*-*-------------------/       \--5-8-5-8-5-8---|
-1-*-*-*-4-*-*-*--1-3-4-0--1-*-*-*-4-*-*-*-4-7-4-7-4-7---------------|
---3-1-0---3-1-0--1-3-4-0----3-1-0---3-1-0---------------------------|
R
---------------------------------------------------------------------|
---------------------------------------------------------_______-----|
---------------------------------------------_______----/       \----|
------------------*-*-*-*-------------------/       \--2-5-2-5-2-5---|
-1-*-*-*-4-*-*-*--1-3-4-0--1-*-*-*-4-*-*-*-1-4-1-4-1-4---------------|
---3-1-0---3-1-0--1-3-4-0----3-1-0---3-1-0---------------------------|


0:08                                                              0:12
L
---------------------------------------------------------------------|
---------------------------------------------------------_______-----|
---------------------------------------------_______----/       \----|
------------------*-*-*-*-------------------/       \--5-8-5-8-5-8---|
-1-*-*-*-4-*-*-*--1-3-4-0--1-*-*-*-4-*-*-*-4-7-4-7-4-7---------------|
---3-1-0---3-1-0--1-3-4-0----3-1-0---3-1-0---------------------------|
R
---------------------------------------------------------------------|
---------------------------------------------------------_______-----|
---------------------------------------------_______----/       \----|
------------------*-*-*-*-------------------/       \--2-5-2-5-2-5---|
-1-*-*-*-4-*-*-*--1-3-4-0--1-*-*-*-4-*-*-*-1-4-1-4-1-4---------------|
---3-1-0---3-1-0--1-3-4-0----3-1-0---3-1-0---------------------------|



0:12                                                        0:15
L
-----------------------------------------------------------------|
---------------------------___-----------------------------------|
-----------___------------/   \----------------------------------|
----------/   \----------4-5-4-5---------------------------------|
-*-*-*-*-6-7-6-7-*-*-*-*---------*-*-*-*-*-*-*-*-*-*-*-*-*-*-*-*-|
-3-4-3-4---------3-4-3-4---------0-1-0-1-4-3-1-3-0-1-0-1-4-3-1-3-|
R
-----------------------------------------------------------------|
-----------------------------------------------------------------|
-----------___-------------___-----------------------------------|
----------/   \-----------/   \----------------------------------|
-*-*-*-*-6-7-6-7-*-*-*-*-6-7-6-7-*-*-*-*-*-*-*-*-*-*-*-*-*-*-*-*-|
-3-4-3-4---------3-4-3-4---------0-1-0-1-4-3-1-3-0-1-0-1-4-3-1-3-|



0:15                                                         0:20
L
-----------------------------------------------------------------|
---------------------------___-----------------------------------|
-----------___------------/   \----------------------------------|
----------/   \----------4-5-4-5---------------------------------|
-*-*-*-*-6-7-6-7-*-*-*-*---------*-*-*-*-*-*-*-*-*-*-*-*-*-*-----|
-3-4-3-4---------3-4-3-4---------0-1-0-1-4-3-1-3-0-1-0-1-4-3-1/3-|
R
-----------------------------------------------------------------|
-----------------------------------------------------------------|
-----------___-------------___-----------------------------------|
----------/   \-----------/   \----------------------------------|
-*-*-*-*-6-7-6-7-*-*-*-*-6-7-6-7-*-*-*-*-*-*-*-*-*-*-*-*-*-*-----|
-3-4-3-4---------3-4-3-4---------0-1-0-1-4-3-1-3-0-1-0-1-4-3-1/3-|



0:20                                                                                   0:24
L                                                                               ^
--------------------------------------------------------------------^---12/15-18-15--------|
--------------------------------------------^-----------^---17\14-11-14-------------17/20--|
---------------------------------12-15----15-12-------15-18--------------------------------|
---------------------------11-14----------------14/17--------------------------------------|
------7-10-----------10-13-----------------------------------------------------------------|
-8-11----------11-14-----------------------------------------------------------------------|
R
---------------------------------------------------------------------------------|
----------------------------11-13------------------------------------------------|
-----------------------9-12------------------------------------------------------|
---------^--------8-11-----------------------------------------------------------|
---^---10-13-7-10---------------------------*---4-*-7-4-*-4-*---1-*-4-1-*-1------|
-11-13--------------------------------------4-5---5-----5---1-2---2-----2--------|



0:24                                                              0:28
L
-20-17-------------------17----18-15-------------------13-17-15-13-12--|
-------18-------------18-------------17---------^---15-----------------|
----------17----15-19-------------------18----14-15--------------------|
-----------------------------------------------------------------------|
-----------------------------------------------------------------------|
-----------------------------------------------------------------------|
R

------------------------------------------------------------------------------|
---------------------10-----------------------------------------15-18-17-15---|
-----5------------10-------------9-12--------------12----^---15-------------17|
-4-7---7-----8-12-----------8-11----------------14-----14-15------------------|
------------------------------------------13-16-------------------------------|
------------------------------------------------------------------------------|




0:29                                                               0:33
L
   ^                    ^
-12-9---------------9-12-9---------------9-12-11-9----9------^---------|
------11---------11--------11---------11-----------12---12-11-12-ph----|
---------12-9-12--------------12-9-12----------------------------10~~--|
-----------------------------------------------------------------------|
-----------------------------------------------------------------------|
-----------------------------------------------------------------------|
R  ^
-9-6-------------------------------------------------------------------|
------8-----------8----------------------------------------------PH----|
---------9--6--9------9--6----------------6--9--8--6---9--8--6----9~---|
-----------------------------8---------8-------------9----------9------|
--------------------------------7--10----------------------------------|
-----------------------------------------------------------------------|



0:33                                                                    0:37
L
-------------------_--------------------------------------------------------|
------------------/ \------------_----------------------^-------------_-----|
-*-*-8-*-9-*-8-*-6-8-6---6------/ \--------------------8-6----6------/ \----|
-6-6---6---6---6-------9---9-8-6-8-9--*-*-9-*-8-*-9-*-------9---9-8-6-8-9---|
--------------------------------------7-7---7---7---7-----------------------|
----------------------------------------------------------------------------|
R
                        ///    /// ///                 /// ///
-///-----------///-///--11-----12---9-------------------9--11--|
--9------------11-12-------------------------------------------|
---------------------------------------------------------------|
---------------------------------------------------------------|
---------------------------------------------------------------|
---------------------------------------------------------------|



0:37                                                                  0:41
L
-------------------_--------------------------------------------------------|
------------------/ \------------_----------------------^-------------------|
-*-*-8-*-9-*-8-*-6-8-6---6------/ \--------------------8-6----6------^------|
-6-6---6---6---6-------9---9-8-6-8-9--*-*-9-*-8-*-9-*-------9---9-8-6-8-----|
--------------------------------------7-7---7---7---7-----------------------|
----------------------------------------------------------------------------|

R                                                       /// ///  
-///--///----------------///---///--///-------///-///---12---11-----|
-11----7----///-----------11---12----9---------9--12----------------|
-------------8------------------------------------------------------|
--------------------------------------------------------------------|
--------------------------------------------------------------------|
--------------------------------------------------------------------|



0:41                                                                 0:44
L
--------------------------------------------------------------------------|
--------------------------------------------------------------------------|
-*-*-8-*-11-*-9-*-8-*-9-*-11-*-8-*----------------------------------------|
-9-9---9----9---9---9---9----9---9--*-*-8-*-11-*-9-*-8-*-9-*-11-*-8-*-----|
------------------------------------9-9---9----9---9---9---9----9---9-----|
--------------------------------------------------------------------------|
R
  ^    ^    ^    ^   ^    ^    ^    ^   ^   ^    ^   ^   ^   ^    ^   ^
-9-0-11-0-12-0-11-0-9-0-11-0-12-0-11-0-7-0-9-0-11-0-9-0-7-0-9-0-11-0-9-0-|
-------------------------------------------------------------------------|
-------------------------------------------------------------------------|
-------------------------------------------------------------------------|
-------------------------------------------------------------------------|
-------------------------------------------------------------------------|



0:44                                                                    0:49
L
-------------------_--------------------------------------------------------|
------------------/ \------------_---------------------^-----------_--------|
-----------------6-8-6---6------/ \-------------------9-8---------/ \---^---|
-*-*-9-*-8-*-9-*-------9---9-8-6-8-9-*-*-9-*-8-*-9-*-------11-9-11-9-8-8-9--|
-7-7---7---7---7---------------------6-6---6---6---6------------------------|
----------------------------------------------------------------------------|
R
                         ///  ///  ///                          ///   ///  ///
///------///---///--///---7----9----7--///------///---///--///---7-----11---9--|
-11-------7-----9----11-----------------11-------7-----9----11-----------------|
-------------------------------------------------------------------------------|
-------------------------------------------------------------------------------|
-------------------------------------------------------------------------------|
-------------------------------------------------------------------------------|



0:49                                                                         0:54
        _            _            _             _             _            _
       / \          / \          / \           / \           / \          / \
------6-7-6--------6-7-6--------4-5-4---------4-7-4---------2-3-2--------2-5-2-----|
-----7------------7------------5-----5-------5-----5-------3-----3------3-----3----|
--^-8------8---^-8------8---^-6-------6---^-6-------6---^-4-------4--^-4-------4---|
-6-9--------9-6-9--------9-4-7---------7-4-7---------7-2-5----------2-5---------5--|
-----------------------------------------------------------------------------------|
-----------------------------------------------------------------------------------|
R
------6-------------6------------4------------4------------2----------2--------|
-----7--7----------7--7---------5--5---------5--5---------3--3-------3--3------|
--^-8-----8-----^-8-----8----^-6-----6----^-6-----6----^-4-----4--^-4-----4----|
-6-9--------9-6-9---------9-4-7--------7-4-7--------7-2-5--------2-5--------5--|
-------------------------------------------------------------------------------|
-------------------------------------------------------------------------------|

clean
L
-----------------|
----------6------|
-------6---------|
----8------------|
-9---------------|
-----------------|

R
-----------------|
-----------------|
----------3------|
-------3---------|
----1------------|
-1---------------|


0:56                                            1:00
BOTH
----------------------------------------------------|
----------------------------------------------------|
----------------------------------------------------|
------------------*-*-*-*-------------------*-*-----|
-1-*-*-*-4-*-*-*--1-3-4-0--1-*-*-*-4-*-*-*--1-3-----|
---3-1-0---3-1-0--1-3-4-0----3-1-0---3-1-0--1-3-----|



1:00                                                         1:06
L
-----------------------------------------------------------------|
-----5-8-6-5-8-5-----10-8------8-10-11---11-10-8-----------------|
-7-5-------------5-7------9-10-------------------10-9-7---9-10---|
--------------------------------------------------------7--------|
-----------------------------------------------------------------|
-----------------------------------------------------------------|
R
-----------------------------------------------------------------|
-----------------------------------------------------------------|
--------9------9---------10-9-------9-10-12-----^--9---------5-7-|
---7-10----------10-7---------10-12------------8-7---------7-----|
-8--------8-10---------8---------------------8-------8-7-5-------|
-8--------8-10---------8---------------------8|------8-7-5-------|



1:06                               1:09
L
-----------------------------------------|
-------------------------8-6-5-----5-6---|
----10-7-----7-----------------5-7-------|
-10------5-8----8-7----------------------|
--------------------8-5------------------|
-----------------------------------------|
R
---------------------------------------|
---------------------------------------|
----7----------------------------------|
------5---5-8---7-----10-8-7-----7-8---|
-3------5-----5---8-5--------3-5-------|
-3------------5--------------3/5-------|



1:09                                                        1:15
L

-----------------------------------------------------------------|
-----5-8-6-5-8-5-----10-8------8-10-11---11-10-8-----------------|
-7-5-------------5-7------9-10-------------------10-9-7---9-10---|
--------------------------------------------------------7--------|
-----------------------------------------------------------------|
-----------------------------------------------------------------|
R
-----------------------------------------------------------------|
-----------------------------------------------------------------|
--------9------9---------10-9-------9-10-12-----^--9---------5-7-|
---7-10----------10-7---------10-12------------8-7---------7-----|
-8--------8-10---------8---------------------8-------8-7-5-------|
-8--------8-10---------8---------------------8|------8-7-5-------|



1:15                                 1:18
L
-----------------------------------------|
-------------------------8-6-5-----5-6---|
----10-7-----7-----------------5-7-------|
-10------5-8----8-7----------------------|
--------------------8-5------------------|
-----------------------------------------|
R
---------------------------------------|
---------------------------------------|
----7----------------------------------|
------5---5-8---7-----10-8-7-----7-8---|
-3------5-----5---8-5--------3-5-------|
-3------------5--------------3/5-------|



1:18                                                         1:24
L
-----------------------------------------------------------------|
-----5-8-6-5-8-5-----10-8------8-10-11---11-10-8-----------------|
-7-5-------------5-7------9-10-------------------10-9-7---9-10---|
--------------------------------------------------------7--------|
-----------------------------------------------------------------|
-----------------------------------------------------------------|
R
-----------------------------------------------------------------|
-----------------------------------------------------------------|
--------9------9---------10-9-------9-10-12-----^--9---------5-7-|
---7-10----------10-7---------10-12------------8-7---------7-----|
-8--------8-10---------8---------------------8-------8-7-5-------|
-8--------8-10---------8---------------------8|------8-7-5-------|



1:24                                 1:27
L
-----------------------------------------|
-------------------------8-6-5-----5-6---|
----10-7-----7-----------------5-7-------|
-10------5-8----8-7----------------------|
--------------------8-5------------------|
-----------------------------------------|
R
---------------------------------------|
---------------------------------------|
----7----------------------------------|
------5---5-8---7-----10-8-7-----7-8---|
-3------5-----5---8-5--------3-5-------|
-3------------5--------------3/5-------|



1:27                                                                   1:33
L
----------------------------------------------------------------------------|
--------------------------------------------------------------------ph--PH--|
-------------------------------------///-----------------------------6--7\--|
-2----------2------------2------------3--5-2--------------------------------|
--*-*-*-*-*--*-*-*-*-*-*--*-*-*-*-*-*-------*-*-*-*-*-*-4-*-*-*-*-*-*-------|
--3-2-0-2-3--3-2-0-3-2-3--3-2-0-3-2-3-------3-2-0-3-2-3---3-2-0-3-2-3-------|
R
----------------------------------------------------------------------------|
-------------------------------------///------------------------------ph-ph-|
-2----------2------------2------------2--3-2--------------------------6--7\-|
----------------------------------------------------------------------------|
--*-*-*-*-*--*-*-*-*-*-*--*-*-*-*-*-*-------*-*-*-*-*-*-4-*-*-*-*-*-*-------|
--3-2-0-2-3--3-2-0-3-2-3--3-2-0-3-2-3-------3-2-0-3-2-3---3-2-0-3-2-3-------|



1:33                                                                    1:37
L
----------------------------------------------------------------------------|
--------------------------------------------------------------------ph-ph---|
-------------------------------------///-----------------------------6--7\--|
-2----------2------------2------------3--5-2--------------------------------|
--*-*-*-*-*--*-*-*-*-*-*--*-*-*-*-*-*-------*-*-*-*-*-*-4-*-*-4-*-*---------|
--3-2-0-2-3--3-2-0-3-2-3--3-2-0-3-2-3-------3-2-0-3-2-3---3-2---3-2---------|
R
----------------------------------------------------------------------------|
-------------------------------------///------------------------------ph-ph-|
-2----------2------------2------------2--3-2--------------------------6--7\-|
----------------------------------------------------------------------------|
--*-*-*-*-*--*-*-*-*-*-*--*-*-*-*-*-*-------*-*-*-*-*-*-4-*-*-*-*-*-*-------|
--3-2-0-2-3--3-2-0-3-2-3--3-2-0-3-2-3-------3-2-0-3-2-3---3-2-0-3-2-3-------|



1:37                                                                     1:41
L
--------------__-------------------------------__----------__----------13----|
--^----------/  \------------------^----------/  \--------/  \---12-15----15-|
14-10-------9-10-9-----14---12---14-10-------9-10-9-----12-13-12-------------|
-----12-------------------------------12-------------------------------------|
--------*-*--------*-*----*----*---------*-*--------*-*----------------------|
--------0-0--------0-0----0----0---------0-0--------0-0----------------------|
R
-------------_----------------------------------_---------__--------10----|
--^---------/ \----------------------^---------/ \-------/  \--9-12----12-|
-7-3-------6-7-6------10---9--------7-3-------6-7-6-----9-10-9------------|
-----5----------------------------------5---------------------------------|
-------*-*--------*-*----*---*------------*-*-------*-*-------------------|
-------0-0--------0-0----0---0------------0-0-------0-0-------------------|



1:41                                                                              1:45 
L
--------------__-------------------------------__----------__------__-------------------|
--^----------/  \------------------^----------/  \--------/  \----/  \------------ph----|
14-10-------9-10-9-----14---12---14-10-------9-10-9-----10-12-10-9-10-9------------9-10-|
-----12-------------------------------12------------------------------------------------|
--------*-*--------*-*----*----*---------*-*--------*-*-----------------8-7-------------|
--------0-0--------0-0----0----0---------0-0--------0-0---------------------10-8-7------|
R
-------------_-----------------------------_---------__-----_-----------------|
--^---------/ \-----------------^---------/ \-------/  \---/ \-----------PH---|
-7-3-------6-7-6------10---9---7-3-------6-7-6-----9-10-9-7-9-7-----------6-7-|
-----5-----------------------------5------------------------------------------|
-------*-*--------*-*----*---*-------*-*-------*-*--------------8-7-----------|
-------0-0--------0-0----0---0-------0-0-------0-0------------------10-8-7----|



1:45                                                                     1:49
L
--------------__-------------------------------__----------__----------13----|
--^----------/  \------------------^----------/  \--------/  \---12-15----15-|
14-10-------9-10-9-----14---12---14-10-------9-10-9-----12-13-12-------------|
-----12-------------------------------12-------------------------------------|
--------*-*--------*-*----*----*---------*-*--------*-*----------------------|
--------0-0--------0-0----0----0---------0-0--------0-0----------------------|
R
-------------_----------------------------------_---------__--------10----|
--^---------/ \----------------------^---------/ \-------/  \--9-12----12-|
-7-3-------6-7-6------10---9--------7-3-------6-7-6-----9-10-9------------|
-----5----------------------------------5---------------------------------|
-------*-*--------*-*----*---*------------*-*-------*-*-------------------|
-------0-0--------0-0----0---0------------0-0-------0-0-------------------|



1:49                                                                               1;52
L
--------------__-------------------------------__----------__------__------------------|
--^----------/  \------------------^----------/  \--------/  \----/  \-----------ph----|
14-10-------9-10-9-----14---12---14-10-------9-10-9-----10-12-10-9-10-9-----------9-10-|
-----12-------------------------------12-----------------------------------------------|
--------*-*--------*-*----*----*---------*-*--------*-*-----------------7--------------|
--------0-0--------0-0----0----0---------0-0--------0-0-------------------7-10-8-7-----|
R
-------------_-----------------------------_---------__-----_-----------------|
--^---------/ \-----------------^---------/ \-------/  \---/ \-----------PH---|
-7-3-------6-7-6------10---9---7-3-------6-7-6-----9-10-9-7-9-7-----------6-7-|
-----5-----------------------------5------------------------------------------|
-------*-*--------*-*----*---*-------*-*-------*-*--------------8-7-----------|
-------0-0--------0-0----0---0-------0-0-------0-0------------------10-8-7----|



1:52                                                  1:56
L
-----------------------------------------------------------|
-----------------------------------------------------------|
-----------------------------------------------------------|
-*---------------------*-*-*---------------------*-*-*-*---|
-0------------------**-0-0-0------------------**-0-0-0-0---|
-0------------------00-0-0-0------------------00-0-0-0-0---|
R
------------_-----------------------_----------------------|
--^--------/ \-------------^-------/ \---------------------|
-7-3------6-7-6----10--9--7-3-----6-7-6-----10--9--6--7----|
----5------------------------5-----------------------------|
------*-*-------*-*---*--*-----*-*------*-*----*--*--*--*--|
------0-0-------0-0---0--0-----0-0------0-0----0--0--0--0--|



1:56                                                 2:00
L
-----------------------------------------------------------|
-----------------------------------------------------------|
-----------------------------------------------------------|
-*---------------------*-*-*---------------------*-*-*-*---|
-0------------------**-0-0-0------------------**-0-0-0-0---|
-0------------------00-0-0-0------------------00-0-0-0-0---|
R
------------_-----------------------_----------------__--------|
--^--------/ \-------------^-------/ \--------------/  \--9-12-|
-7-3------6-7-6----10--9--7-3-----6-7-6-----10--9--9-10-9------|
----5------------------------5---------------------------------|
------*-*-------*-*---*--*-----*-*------*-*----*--*------------|
------0-0-------0-0---0--0-----0-0------0-0----0--0------------|


2:00                                                2;03
L
-----------------------------------------------------------|
-----------------------------------------------------------|
-----------------------------------------------------------|
-*---------------------*-*-*---------------------*-*-*-*---|
-0------------------**-0-0-0------------------**-0-0-0-0---|
-0------------------00-0-0-0------------------00-0-0-0-0---|
R
------------_-----------------------_----------------------|
--^--------/ \-------------^-------/ \---------------------|
-7-3------6-7-6----10--9--7-3-----6-7-6-----10--9--6--7----|
----5------------------------5-----------------------------|
------*-*-------*-*---*--*-----*-*------*-*----*--*--*--*--|
------0-0-------0-0---0--0-----0-0------0-0----0--0--0--0--|


2:03                                                 2:06
L
-----------------------------------------------------------|
-----------------------------------------------------------|
-----------------------------------------------------------|
-*---------------------*-*-*---------------------*-*-*-*---|
-0------------------**-0-0-0------------------**-0-0-0-0---|
-0------------------00-0-0-0------------------00-0-0-0-0---|
R
------------_-----------------------_----------------__--------|
--^--------/ \-------------^-------/ \--------------/  \--9-12-|
-7-3------6-7-6----10--9--7-3-----6-7-6-----10--9--9-10-9------|
----5------------------------5---------------------------------|
------*-*-------*-*---*--*-----*-*------*-*----*--*------------|
------0-0-------0-0---0--0-----0-0------0-0----0--0------------|



2:06                                                              2:11
L
------------------------------------------------------------------------|
-------------------------------_----------------------------------------|
-------------------------_----/ \----_-------------------5/8--H---------|
--------)(---_-----_----/ \--5-6-5--/ \---------)(---_--------5-v-------|
----^--1----/ \---/ \--5-6-8-------8-6-5----^--1----/ \-----------------|
-0-1-3-----3-1-0-5-6-8-------------------0-1-3-----3-1-0----------------|
R
------------------------------------------------------------------|
--------------------------------------------------------------H---|
---------------------------------------------------------4/7--5---|
---------------------------------------------------------------V--|
------------------------------------------------------------------|
------------------------------------------------------------------|



2:11                                                                2:15
L
------------------------------------------------------------------------|
-------------------------------_-------------------------3/7------------|
-------------------------_----/ \----_------------------------H---------|
--------)(---_-----_----/ \--5-6-5--/ \---------)(---_--------4-v-------|
----^--1----/ \---/ \--5-6-8-------8-6-5----^--1----/ \-----------------|
-0-1-3-----3-1-0-5-6-8-------------------0-1-3-----3-1-0----------------|
R
--------------------------------------------------------------H---------|
-------------------------------_-------------------------3/7--4-V-------|
-------------------------_----/ \----_----------------------------------|
--------)(---_-----_----/ \--5-6-5--/ \---------)(---_------------------|
----^--1----/ \---/ \--5-6-8-------8-6-5----^--1----/ \-----------------|
-0-1-3-----3-1-0-5-6-8-------------------0-1-3-----3-1-0----------------|



2:15                                                               2:19
L
------------------------------------------------------------------------|
-------------------------------_----------------------------------------|
-------------------------_----/ \----_-------------------5/8--H---------|
--------)(---_-----_----/ \--5-6-5--/ \---------)(---_--------5-v-------|
----^--1----/ \---/ \--5-6-8-------8-6-5----^--1----/ \-----------------|
-0-1-3-----3-1-0-5-6-8-------------------0-1-3-----3-1-0----------------|
R
------------------------------------------------------------------------|
-------------------------------_------------------------------H---------|
-------------------------_----/ \----_--------------------4/7-5---------|
--------)(---_-----_----/ \--5-6-5--/ \---------)(---_---------v--------|
----^--1----/ \---/ \--5-6-8-------8-6-5----^--1----/ \-----------------|
-0-1-3-----3-1-0-5-6-8-------------------0-1-3-----3-1-0----------------|



2:19                                                                2:23
L
------------------------------------------------------------------------|
-------------------------------_-------------------------------H--------|
-------------------------_----/ \----_---------------------5/8-4-V------|
--------)(---_-----_----/ \--5-6-5--/ \---------)(---_------------------|
----^--1----/ \---/ \--5-6-8-------8-6-5----^--1----/ \-----------------|
-0-1-3-----3-1-0-5-6-8-------------------0-1-3-----3-1-0----------------|
R
------------------------------------------------------------------------|
-------------------------------_-------------------------- 3/7-H--------|
-------------------------_----/ \----_-------------------------9--V-----|
--------)(---_-----_----/ \--5-6-5--/ \---------)(---_------------------|
----^--1----/ \---/ \--5-6-8-------8-6-5----^--1----/ \-----------------|
-0-1-3-----3-1-0-5-6-8-------------------0-1-3-----3-1-0----------------|



2:23                                            2:25
L                                                                
----------------------_-----------------------------|
-----------_---------/ \----------------_------_----|
----------/ \-------7-8-10---_---------/ \----/ \---|
---------7-8-10-------------/ \-------7-8-10-5-7-8--|
-*-*-*-*--------*-*--------7-8-10-*-*---------------|
-0-0-0-0--------0-0---------------0-0---------------|
R
----------------------_---------------------------|
-----------_---------/ \--------------_-----------|
----------/ \-------6-7-9--_---------/ \----_-----|
---------6-7-9------------/ \-------6-7-9--/ \----|
-*-*-*-*--------*-*------6-7-9-*-*--------7-9-10--|
-0-0-0-0--------0-0------------0-0----------------|



2:25                                   2:27

                  __   (on the slides up, the string is 
L            _   /  \            tremelo picked)
------------/ \-7-10-7--^----------------|
-------_---7-8-7--------8-7--8\-/12\-/19\|
------/ \--------------------------------|
-----5-7-8-------------------------------|
-*-*-------------------------------------|
-0-0-------------------------------------|
R
--------------------__--------------------|
-------------__----/  \-------------------|
-------_----/  \--9-12-9--^---------------|
------/ \--9-10-9-------10-9-10\-/14\-/22\|
-*-*-7-9-10-------------------------------|
-0-0--------------------------------------|


2:27                                           2:30
L                                                                
----------------------_-----------------------------|
-----------_---------/ \----------------_------_----|
----------/ \-------7-8-10---_---------/ \----/ \---|
---------7-8-10-------------/ \-------7-8-10-5-7-8--|
-*-*-*-*--------*-*--------7-8-10-*-*---------------|
-0-0-0-0--------0-0---------------0-0---------------|
R
----------------------_---------------------------|
-----------_---------/ \--------------_-----------|
----------/ \-------6-7-9--_---------/ \----_-----|
---------6-7-9------------/ \-------6-7-9--/ \----|
-*-*-*-*--------*-*------6-7-9-*-*--------7-9-10--|
-0-0-0-0--------0-0------------0-0----------------|



2:30                                  2:33

                  __   (on the slides up, the string is 
L            _   /  \            tremelo picked)
------------/ \-7-10-7--^----------------|
-------_---7-8-7--------8-7--8\-/12\-/19\|
------/ \--------------------------------|
-----5-7-8-------------------------------|
-*-*-------------------------------------|
-0-0-------------------------------------|
R
--------------------__--------------------|
-------------__----/  \-------------------|
-------_----/  \--9-12-9--^---------------|
------/ \--9-10-9-------10-9-10\-/14\-/22\|
-*-*-7-9-10-------------------------------|
-0-0--------------------------------------|


2:33                                          2:35
L                                                                
----------------------_-----------------------------|
-----------_---------/ \----------------_------_----|
----------/ \-------7-8-10---_---------/ \----/ \---|
---------7-8-10-------------/ \-------7-8-10-5-7-8--|
-*-*-*-*--------*-*--------7-8-10-*-*---------------|
-0-0-0-0--------0-0---------------0-0---------------|
R
----------------------_---------------------------|
-----------_---------/ \--------------_-----------|
----------/ \-------6-7-9--_---------/ \----_-----|
---------6-7-9------------/ \-------6-7-9--/ \----|
-*-*-*-*--------*-*------6-7-9-*-*--------7-9-10--|
-0-0-0-0--------0-0------------0-0----------------|



2:35                                   2:38

                  __   (on the slides up, the string is 
L            _   /  \            tremelo picked)
------------/ \-7-10-7--^----------------|
-------_---7-8-7--------8-7--8\-/12\-/19\|
------/ \--------------------------------|
-----5-7-8-------------------------------|
-*-*-------------------------------------|
-0-0-------------------------------------|
R
--------------------__--------------------|
-------------__----/  \-------------------|
-------_----/  \--9-12-9--^---------------|
------/ \--9-10-9-------10-9-10\-/14\-/22\|
-*-*-7-9-10-------------------------------|
-0-0--------------------------------------|


2:38                    2:40
BOTH
----------------------------|
----------------------------|
----------------------------|
-*-*-*-*-*-*-*-2-*-*-*-2----|
-0-3-1-0-4-3-1-2-3-1-0-2----|
-0-3-1-0-4-3-1---3-1-0------|




2:40                                                                                   2:44
S                                                          _______________
                   ^                                      /               \
--------10-11/13-15-13-11\10-------------------------15-17/18/20-18-17-18-17----------------|
------11---------------------11--------------------15------------------------18\16-------^--|
----12-------------------------------12----------15---------------------------------15\14-15|
-13-------------------------------13----13/15--17-------------------------------------------|
--------------------------------------------------------------------------------------------|
--------------------------------------------------------------------------------------------|
R
-----------------------------------------------------------------------------------------|
-----------------------------------------------------------------------------------------|
-------------------------------------------------------------------------5---------------|
--5-------5-------5---5-----5--1/3---------7-------7-------7-----8-----------8--7--------|
-----*-*-----*-*----*---*-*---------5--------*-*-----*-*-----*-----*-*-------------8--5--|
-----1-1-----1-1----1---1-1------------7-----5-5-----5-5-----5-----5-5-------------------|



2:44                                                                                     2:48
                                                                 __
S                  ^                                            /  \
--------10-11/13-15-13-11\10-------------------------------^---8-10-8-------------------------|
------11---------------------11--------------------------10-11--------11-10-------------------|
----12--------------------------12---------------------10-------------------10---------^------|
-13--------------------------------13-12-10------^---12------------------------13-12-10-12----|
--------------------------------------------13-10-13------------------------------------------|
----------------------------------------------------------------------------------------------|
R
-----------------------------------------------------------------------------------------|
-----------------------------------------------------------------------------------------|
-------------------------------------------------------------------------5---------------|
--5-------5-------5---5-----5--------------7-------7-------7-----8-----------8--7--------|
-----*-*-----*-*----*---*-*----6--5----------*-*-----*-*-----*-----*-*-------------8--5--|
-----1-1-----1-1----1---1-1----------8--7----5-5-----5-5-----5-----5-5-------------------|



2:48                                                                                    2:52
                                                           _______________
S                  ^                                      /               \
--------10-11/13-15-13-11\10-------------------------15-17/18/20-18-17-18-17----------------|
------11---------------------11--------------------15------------------------18\16-------^--|
----12-------------------------------12----------15---------------------------------15\14-15|
-13-------------------------------13----13/15--17-------------------------------------------|
--------------------------------------------------------------------------------------------|
--------------------------------------------------------------------------------------------|
R
-----------------------------------------------------------------------------------------|
-----------------------------------------------------------------------------------------|
-------------------------------------------------------------------------5---------------|
--5-------5-------5---5-----5--1/3---------7-------7-------7-----8-----------8--7--------|
-----*-*-----*-*----*---*-*---------5--------*-*-----*-*-----*-----*-*-------------8--5--|
-----1-1-----1-1----1---1-1------------7-----5-5-----5-5-----5-----5-5-------------------|



2:52                                                                                         2:56
S                                                                
                  ^                                            
-------10-11/13-15-13-11\10------------------------------__--------------------------------------|
-----11---------------------11--------------------------/  \------------___________--------------|
---12----------------------------------------__-------14-15-14-12------/           \-------------|
13------------------------------13-12-10----/  \---15-------------15-13-15-13-12-13-12-----------|
------------------------------------------12-15-17------------------------------------15-14-12---|
----------------------------------------------------------------------------------------------15~|
R
-----------------------------------------------------------------------------------------|
-----------------------------------------------------------------------------------------|
-------------------------------------------------------------------------5---------------|
--5-------5-------5---5-----5--------------7-------7-------7-----8-----------8--7--------|
-----*-*-----*-*----*---*-*----6--5----------*-*-----*-*-----*-----*-*-------------8--5--|
-----1-1-----1-1----1---1-1----------8--7----5-5-----5-5-----5-----5-5-------------------|



2:56                                                                       3:01
L
-------------------------------------------------------------------------------|
-------------------------------------------------------------------------------|
-------------------------------------------------------------------------------|
-------------------------------------------------------------------------------|
-8-*-*-8-*-*-8-*-*-10-*-*-12-*-*-12-*-*-12-*-*-10----12-*-*-12-*-*-12-*-*-10---|
---5-5---5-5---5-5----8-8----8-8----8-8----8-8----------8-8----8-8----8-8------|
R
--------------------------------------------------------------------|
--------------------------------------------------------------------|
---------------------------------------------PH---------------------|
-7-*--*-7-*--*-7-*--*-5-*-*-3-*-*-3-*-*-3-*-*-3--3-*-*-3-*-*-3-*-*-3|
---8-10---8-10---8-10---7-8---5-7---5-7---5-7------5-7---5-7---5-7--|
--------------------------------------------------------------------|



3:01                                                                                 3:05
L
------------------------------------------------------------------------------------------|
------------------------------------------------------------------------------------------|
------------------------------------------------------------------------------------------|
------------------------------------------------------------------------------------------|
-/15--*--*--15--*--*-13--*--*-13--*--*-12-*-*-12-*-*-12-*-*-10----12-*-*-12-*-*-12-*-*-10-|
-----12-12-----12-12----10-10----10-10----8-8----8-8----8-8----------8-8----8-8----8-8----|
R
------------------------------------------------------------------------|
------10-6----------10-6---------8-5------------PH-------------------PH-|
-10-7------7-9-10-7------7-9-9-5-----5-7-10-9-7-7--9-5-7-9-5-7-10-9-7-7-|
------------------------------------------------------------------------|
------------------------------------------------------------------------|
------------------------------------------------------------------------|



3:05                                                              3:10
L
----------------------------------------------------------------------------|
----------------------------------------------------------------------------|
----------------------------------------------------------------------------|
---------------------------------------------7--------------------7---------|
-8-*-*-8-*-*-10-*-*-10-*-*-7-*-*-7-*-*-7-*-*-5--7-*-*-7-*-*-7-*-*-5---------|
---5-5---5-5----7-7----7-7---3-3---3-3---3-3-5----3-3---3-3---3-3-5---------|
R
-----------------------------------------------------------------------------|
-----------------------------------------------------------------------------|
------9-7------------9-7--------------------------PH-----------------------PH|
-10-7-----9-10--10-7-----9-10-8------8------8------8--8------8------8-------8|
--------------------------------10-12--10-12--10-12-----10-12--10-12--10-12--|
-----------------------------------------------------------------------------|



3:10                                                                       3:14
L
-------------------------------------------------------------------------------|
-------------------------------------------------------------------------------|
-------------------------------------------------------------------------------|
-------------------------------------------------------------------------------|
-8-*-*-8-*-*-8-*-*-10-*-*-12-*-*-12-*-*-12-*-*-10----12-*-*-12-*-*-12-*-*-10---|
---5-5---5-5---5-5----8-8----8-8----8-8----8-8----------8-8----8-8----8-8------|
R
--------------------------------------------------------------------|
--------------------------------------------------------------------|
---------------------------------------------PH---------------------|
-7-*--*-7-*--*-7-*--*-5-*-*-3-*-*-3-*-*-3-*-*-3--3-*-*-3-*-*-3-*-*-3|
---8-10---8-10---8-10---7-8---5-7---5-7---5-7------5-7---5-7---5-7--|
--------------------------------------------------------------------|



3:14                                                                                3:19
L
------------------------------------------------------------------------------------------|
------------------------------------------------------------------------------------------|
------------------------------------------------------------------------------------------|
------------------------------------------------------------------------------------------|
-/15--*--*--15--*--*-13--*--*-13--*--*-12-*-*-12-*-*-12-*-*-10----12-*-*-12-*-*-12-*-*-10-|
-----12-12-----12-12----10-10----10-10----8-8----8-8----8-8----------8-8----8-8----8-8----|
R
------------------------------------------------------------------------|
------10-6----------10-6---------8-5------------PH-------------------PH-|
-10-7------7-9-10-7------7-9-9-5-----5-7-10-9-7-7--9-5-7-9-5-7-10-9-7-7-|
------------------------------------------------------------------------|
------------------------------------------------------------------------|
------------------------------------------------------------------------|



3:19                                                                  3:25
L
----------------------------------------------------------------------------|
----------------------------------------------------------------------------|
----------------------------------------------------------------------------|
---------------------------------------------7--------------------7--*------|
-8-*-*-8-*-*-10-*-*-10-*-*-7-*-*-7-*-*-7-*-*-5--7-*-*-7-*-*-7-*-*-5--0------|
---5-5---5-5----7-7----7-7---3-3---3-3---3-3-5----3-3---3-3---3-3-5--0------|
R
-----------------------------------------------------------------------------|
-----------------------------------------------------------------------------|
------9-7------------9-7--------------------------PH-----------------------PH|
-10-7-----9-10--10-7-----9-10-8------8------8------8--8------8------8-------8|
--------------------------------10-12--10-12--10-12-----10-12--10-12--10-12--|
-----------------------------------------------------------------------------|



3:25                                                                        3:32
BOTH
---------------------------------------------------------------------------------|
---------------------------------------------------------------------------------|
--------ph----------------_------------------------ph----------------------------|
-*-*-*-*--)-*-*-*--------/ \--5-------------*-*-*-*--)-*-*-*--*-*-*--------------|
-0-1-3-4-5--4-1-0-*-*-*-5-6-8---8-6-5-------0-1-3-4-5--4-1-0--1-1-1-1-*-1-*-*--^-|
-0-1-3-4----4-1-0-5-6-8---------------8-6---0-1-3-4----4-1-0--2-2-2---5---4-1-0-1|



3:32                                                                                3:39
L
------------------------------------------------------------------------------_----------|
----------------------------------------------------_------------------------/ \---------|
----------------------------ph---------------------/ \----------------------5-7-5--------|
-*-*-----------------*-*-*-*--)-*-*-*-------------5-6-5---------*-*-*-5-7-8-------8-7-5--|
-3-3-*-3-*-3-*-*--^--0-1-3-4-5--4-1-0-*-*-*-5-6-8-------8-6-5---5-7-8-------------------7|
-4-4-4---6---6-4-3-4-0-1-3-4----4-1-0-5-6-8-------------------8--------------------------|
R
-------------------------------------------------------------------------------------------|
----------------------------------------------------_---------------------------_----------|
----------------------------ph---------------------/ \-------------------------/ \---------|
-*-*-----------------*-*-*-*--)-*-*-*-------------5-6-5-----------------------7-8-7--------|
-3-3-*-3-*-3-*-*--^--0-1-3-4-5--4-1-0-*-*-*-5-6-8-------8-6-5---*-*--*-7-8-10-------10-8-7-|
-4-4-4---6---6-4-3-4-0-1-3-4----4-1-0-5-6-8-------------------8-7-8-10--------------------9|



3:39                                                         3:45
L
-----------------------------------------------------------------|
-----5-8-6-5-8-5-----10-8------8-10-11---11-10-8-----------------|
-7-5-------------5-7------9-10-------------------10-9-7---9-10---|
--------------------------------------------------------7--------|
-----------------------------------------------------------------|
-----------------------------------------------------------------|
R
-----------------------------------------------------------------|
-----------------------------------------------------------------|
--------9------9---------10-9-------9-10-12-----^--9---------5-7-|
---7-10----------10-7---------10-12------------8-7---------7-----|
-8--------8-10---------8---------------------8-------8-7-5-------|
-8--------8-10---------8---------------------8|------8-7-5-------|



3:45                                end
L
-----------------------------------------|
-------------------------8-6-5-----5-6---|
----10-7-----7-----------------5-7-------|
-10------5-8----8-7----------------------|
--------------------8-5------------------|
-----------------------------------------|

R
---------------------------------------|
---------------------------------------|
----7----------------------------------|
------5---5-8---7-----10-8-7-----7-8---|
-3------5-----5---8-5--------3-5-------|
-3------------5--------------3/5-------|

comments
We did not receive enough feedback on this tab! Please rate:
print report bad tab
1 2 3 4 5
1 comment total.
0 reply
andherembrace wrote on January 30 2013, 11:35 am

currently working to fix this use this this tab until i do

https://docs.google.com/file/d/0B1AHRImLJJTYLS1zeW1Ya2d5d0E/edit

I want to post or [tab]
guest
You may want to rate the tab now too:
select rating
Please do not post tabs as comments. Select "correction" instead!