Oops, an error
Loading. Please wait.

Forgotten Amongst Screams Tab

52 views 1 this week
no commentswrite comment
1 2 3 4 5
excellent!
x 2
Autoscroll
+/-
esc
set tempo
stop
Contributor
Hey! There's an official Ultimate Guitar app which is ideal
for learning songs when you're away from computer. Get the app
WARNING: You are trying to view
                                    content from Ultimate-Guitar.com
                                    in an unauthorized application,
                                    which is prohibited.

                                    Please use an official Ultimate
                                    Guitar Tabs application for iPhone,
                                    iPad or Android to access legitimate
                                    chords, guitar, bass, and drum tabs
                                    from Ultimate-Guitar.com database.

                                    Type "ultimate guitar tabs" in Apple
                                    App Store's or Android Market's
                                    search to find the application.
WITH PASSION
FORGOTTEN AMONGST SCREAMS
CGCFAD

*=PALM MUTE

TAB INCLUDES WHOLE SONG W/BOTH GTRS

TABBED BY-andherembrace

belialbeast@gmail.com
please email me why you keep denying this.
everytime i submit this, have people voted to accept this 
and you still keep denying it,

-----------------------|
-----------------------|
-----------------------|
----------------6------|
-1---------4----4------|
--2|--------5|---------|

0:03
L
---------------------------------------------------------------------------------_----P--|
-------------------------------------------------_-----------_------------_-----/ \---H--|
-------------------------------------------_----/ \----_----/ \----_-----/ \---7-9-10-9--|
------------------------------------------/ \--4-5-7--/ \--5-7-8--/ \---7-8-10-----------|
-----------3333-----------4444-3333------4-5-7-------5-7-8-------7-8-10------------------|
-0000-1111------0000-1111-----------4444-------------------------------------------------|
R
----------------------------------------------------------------------------------------__------|
-----------------------------------------------_--------------__----------------__-----/  \-----|
----------------------------------------_-----/ \-----__-----/  \------__------/  \--10-12-14-12|
----------3333---------4444-3333-------/ \---7-8-10--/  \---8-10-12---/  \---10-12-14-----------|
---------------------------------4444-7-8-10--------8-10-12---------10-12-13--------------------|
0000-1111-----0000-1111-------------------------------------------------------------------------|


0:08
L
--------------------------------------------------------------------------------------------|
--------------------------------------------------------------------------------------------|
-------------------------------------------------_-----------_-----------_-----------_------|
-------------------------------------------_----/ \--4------/ \----_----/ \--4------/ \-----|
-----------3333-----------4444-3333-------/ \--0-3-6---6-3-0-3-6--/ \--0-3-6---6-3-3-5-6----|
-0000-1111------0000-1111-----------4444-0-1-4-------------------0-1-4----------------------|
R
--------------------------------------------------------------------------------------------|
--------------------------------------------------------------------------------------------|
-------------------------------------------------_-----------_-----------_-----------_------|
-----------3333-----------4444-3333--------_----/ \--4------/ \----_----/ \--4------/ \-----|
------------------------------------4444--/ \--0-3-6---6-3-0-3-6--/ \--0-3-6---6-3-0-3-6----|
-0000-1111------0000-1111----------------0-1-4-------------------0-1-4----------------------|


0:13
L
---------------------------------------------------------|
---------------------------------------------------------|
---------------------------------------------------------|
---------------------------------------------------------|
----------10101010----------11111111-10101010------------|
7777-8888---------7777-8888-------------------11111111---|
R
--------------------------------------------------------|
--------------------------------------------------------|
--------------------------------------------------------|
----------10101010----------11111111-10101010-----------|
----------------------------------------------11111111--|
7777-8888---------7777-8888-----------------------------|


0:15
B
---------------------------------------------------------------|
-------------------__----------------------------_-------------|
-----------__-----/  \-----__-------------_-----/ \-----_------|
---__-----/  \---8-10-12--/  \-----_-----/ \---7-8-10--/ \-----|
--/  \---8-10-12---------8-10-12--/ \---7-8-10--------7-8-10---|
-8-10-12-------------------------7-8-10------------------------|


0:17
L
---------------------------------------------------------|
---------------------------------------------------------|
---------------------------------------------------------|
---------------------------------------------------------|
----------10101010----------11111111-10101010------------|
7777-8888---------7777-8888-------------------11111111---|
R
--------------------------------------------------------|
--------------------------------------------------------|
--------------------------------------------------------|
----------10101010----------11111111-10101010-----------|
----------------------------------------------11111111--|
7777-8888---------7777-8888-----------------------------|


0:19
B
-----------------------------------------------------------------------------|
-------------------__----------------------------_---------------------------|
-----------__-----/  \-----__-------------_-----/ \-----_--------------------|
---__-----/  \---8-10-12--/  \-----_-----/ \---7-8-10--/ \-------------------|
--/  \---8-10-12---------8-10-12--/ \---7-8-10--------7-8-10--12--8--11--7---|
-8-10-12-------------------------7-8-10-----------------------12--8--11--7---|



0:23
L
--------------------------------------------------|
----10---6----9---5---5-----10---6----9---5---5---|
--10----6----9---5---5-----10---6----9---5---5----|
12-----8---11---7---7--7-12----8---11---7---7--7--|
--------------------------------------------------|
--------------------------------------------------|

L
--------------------------------------------------|
----10---6----9---5---5-----10---6----9---5---5---|
--10----6----9---5---5-----10---6----9---5---5----|
12-----8---11---7---7--7-12----8---11---7---7--7--|
--------------------------------------------------|
--------------------------------------------------|

R
---------------------------------------------------------------------------|
---------------------------------------------------------------------------|
14-14-14-10101013-13-13-9-9-9-9-9-9-9-14-14-14101010-13-13-13-9-9-9-9-9-9-9|
12-12-12-8-8-8-11-11-11-7-7-7-7-7-7-7-12-12-12-8-8-8-11-11-11-7-7-7-7-7-7-7|
12-12-12-8-8-8-11-11-11-7-7-7-7-7-7-7-12-12-12-8-8-8-11-11-11-7-7-7-7-7-7-7|
12-12-12-8-8-8-11-11-11-7-7-7-7-7-7-7-12-12-12-8-8-8-11-11-11-7-7-7-7-7-7-7|
 
R
---------------------------------------------------------------------------|
---------------------------------------------------------------------------|
14-14-14-10101013-13-13-9-9-9-9-9-9-9-14-14-14101010-13-13-13-9-9-9-9-9-9-9|
12-12-12-8-8-8-11-11-11-7-7-7-7-7-7-7-12-12-12-8-8-8-11-11-11-7-7-7-7-7-7-7|
12-12-12-8-8-8-11-11-11-7-7-7-7-7-7-7-12-12-12-8-8-8-11-11-11-7-7-7-7-7-7-7|
12-12-12-8-8-8-11-11-11-7-7-7-7-7-7-7-12-12-12-8-8-8-11-11-11-7-7-7-7-7-7-7|
 
 0:32     
L
       __           __            __        __          __   
      /  \         /  \          /  \      /  \        /  \
----13-17-13------9-13-9-------12-15-12---8-12-8------8-12-8------^-------|
--14--------15--10-------11--13----------9-------10--9-------10-13-10-----|
-15------------11-----------14----------10----------10--------------------|
--------------------------------------------------------------------------|
--------------------------------------------------------------------------|
--------------------------------------------------------------------------|
R
---------------------------------------------------------------|
---------------------------------------------------------------|
---------------------------------------------------------------|
---------------------------------------------------------------|
-12-------------8-----------11----------7----------------------|
-12|------------8|----------11|---------7|---------------------|


0:34

L
       __           __            __        __          __   
      /  \         /  \          /  \      /  \        /  \
----13-17-13------9-13-9-------12-15-12---8-12-8------8-12-8------^-------|
--14--------15--10-------11--13----------9-------10--9-------10-13-10-----|
-15------------11-----------14----------10----------10--------------------|
--------------------------------------------------------------------------|
--------------------------------------------------------------------------|
--------------------------------------------------------------------------|
R
---------------------------------------------------------------|
---------------------------------------------------------------|
---------------------------------------------------------------|
---------------------------------------------------------------|
-12-------------8-----------11----------7----------------------|
-12|------------8|----------11|---------7|---------------------|


0:36
L
       __           __            __        __          __   
      /  \         /  \          /  \      /  \        /  \
----13-17-13------9-13-9-------12-15-12---8-12-8------8-12-8------^-------|
--14--------15--10-------11--13----------9-------10--9-------10-13-10-----|
-15------------11-----------14----------10----------10--------------------|
--------------------------------------------------------------------------|
--------------------------------------------------------------------------|
--------------------------------------------------------------------------|
R
---------------------------------------------------------------|
---------------------------------------------------------------|
---------------------------------------------------------------|
---------------------------------------------------------------|
-12-------------8-----------11----------7----------------------|
-12|------------8|----------11|---------7|---------------------|


0:38
L
       __           __            __        __          __   
      /  \         /  \          /  \      /  \        /  \
----13-17-13------9-13-9-------12-15-12---8-12-8------8-12-8------^-------|
--14--------15--10-------11--13----------9-------10--9-------10-13-10-----|
-15------------11-----------14----------10----------10--------------------|
--------------------------------------------------------------------------|
--------------------------------------------------------------------------|
--------------------------------------------------------------------------|
R
---------------------------------------------------------------|
---------------------------------------------------------------|
---------------------------------------------------------------|
---------------------------------------------------------------|
-12-------------8-----------11----------7----------------------|
-12-------------8-----------11----------7----------------------|


0:41
B
--------------------------------------------------------------------|
--------------------------------------------------------------------|
---------------------------------------------------------------_----|
----8---7--------------------^-----------------3-5-3---3------/ \---|
-**---*---*-9-*-6-*-5-*-8-6-5-6-**-6-*-5-*-6-*-------6---6-5-3-5-6--|
-55---5---5---5---5---5---------33---3---3---3----------------------|


0:46
L
----------------------------------------------------------------------------------------|
----------------------------------------------------------------------------------------|
----------------------------------------------------------------------------------------|
----8---7--------------------^--------10101010------10101010------12121212------12\-----|
-**---*---*-9-*-6-*-5-*-8-6-5-6--6666----------6666----------8888----------8888---------|
-55---5---5---5---5---5-----------------------------------------------------------------|
R
-----------------------------------------------------------------------------|
-----------------------------------------------------------------------------|
--------------------------------------8888------8888------10101010------10\--|
----8---7--------------------^---5555------5555------7777----------7777------|
-**---*---*-9-*-6-*-5-*-8-6-5-6----------------------------------------------|
-55---5---5---5---5---5------------------------------------------------------|


0:50
B
--------------------------------------------------------------------|
--------------------------------------------------------------------|
---------------------------------------------------------------_----|
----8---7--------------------^-----------------3-5-3---3------/ \---|
-**---*---*-9-*-6-*-5-*-8-6-5-6-**-6-*-5-*-6-*-------6---6-5-3-5-6--|
-55---5---5---5---5---5---------33---3---3---3----------------------|

0:54
B
-----------------------------------------------------------------------------------|
-----------------------------------------------------------------------------------|
----------------------------------------_-----------_-----------_-----------_------|
----8---7--------------------^----_----/ \--4------/ \----_----/ \--4------/ \-----|
-**---*---*-9-*-6-*-5-*-8-6-5-6--/ \--0-3-6---6-3-0-3-6--/ \--0-3-6---6-3-0-3-6----|
-55---5---5---5---5---5---------0-1-4-------------------0-1-4----------------------|


0:58
--------------------------------------------------------------|
--------------------------------------------------------------|
--------------------------------------------------------------|
-*----*--*--*--*-*----*--------*----*--*--*--*-*----*---------|
-0----0--0--0--0-0----0--1--4--0----0--0--0--0-0----0--1--4---|
-0----0--1--1--1-0----0--1--4--0----0--1--1--1-0----0--1--4---|


1:07
B
--------------------------------------------------------------------|
--------------------------------------------------------------------|
---------------------------------------------------------------_----|
----8---7--------------------^-----------------3-5-3---3------/ \---|
-**---*---*-9-*-6-*-5-*-8-6-5-6-**-6-*-5-*-6-*-------6---6-5-3-5-6--|
-55---5---5---5---5---5---------33---3---3---3----------------------|


1:12
L
----------------------------------------------------------------------------------------|
----------------------------------------------------------------------------------------|
----------------------------------------------------------------------------------------|
----8---7--------------------^--------10101010------10101010------12121212------12\-----|
-**---*---*-9-*-6-*-5-*-8-6-5-6--6666----------6666----------8888----------8888---------|
-55---5---5---5---5---5-----------------------------------------------------------------|
R
-----------------------------------------------------------------------------|
-----------------------------------------------------------------------------|
--------------------------------------8888------8888------10101010------10\--|
----8---7--------------------^---5555------5555------7777----------7777------|
-**---*---*-9-*-6-*-5-*-8-6-5-6----------------------------------------------|
-55---5---5---5---5---5------------------------------------------------------|


1:16
B
--------------------------------------------------------------------|
--------------------------------------------------------------------|
---------------------------------------------------------------_----|
----8---7--------------------^-----------------3-5-3---3------/ \---|
-**---*---*-9-*-6-*-5-*-8-6-5-6-**-6-*-5-*-6-*-------6---6-5-3-5-6--|
-55---5---5---5---5---5---------33---3---3---3----------------------|

1:21
B
-----------------------------------------------------------------------------------|
-----------------------------------------------------------------------------------|
----------------------------------------_-----------_-----------_-----------_------|
----8---7--------------------^----_----/ \--4------/ \----_----/ \--4------/ \-----|
-**---*---*-9-*-6-*-5-*-8-6-5-6--/ \--0-3-6---6-3-0-3-6--/ \--0-3-6---6-3-0-3-6----|
-55---5---5---5---5---5---------0-1-4-------------------0-1-4----------------------|


1:25
------------------------------------------------------------------|
------------------------------------------------------------------|
------------------------------------------------------------------|
-*----*--*--*--*-*----*--------*----*--*--*--*-*----*-------------|
-0----0--0--0--0-0----0--1--4--0----0--0--0--0-0----0--1------4---|
-0----0--1--1--1-0----0--1--4--0----0--1--1--1-0----0--1------4---|


1:35

L
------10-8-6------------10-8-6-----------------------------------------------------|
-----8-----------------8--------10-------------------------------------------------|
----7-----------------7------------------9-10-12-10-9----------9-10-12-10-9--------|
---8-----------------8-----------------10--------------------10---------------10---|
-10----------------10----------------12--------------------12----------------------|
-----------------------------------------------------------------------------------|
R
-----------------------------------------------------------------|
-----------------------------------------------------------------|
-----------------------------------------------------------------|
-*-*-*------------------*-*-*-*----*-*-*-*-*-*-------------------|
-5-5-5------------------5-5-5-5----5-5-5-7-7-7--------------PS---|
-5-5-5------------------5-5-5-5----5-5-5-7-7-7---------------\---|


1:41
L
------10-8-6------------10-8-6-----------------------------------------------------|
-----8-----------------8--------10-------------------------------------------------|
----7-----------------7------------------9-10-12-10-9----------9-10-12-10-9--------|
---8-----------------8-----------------10--------------------10---------------10---|
-10----------------10----------------12--------------------12----------------------|
-----------------------------------------------------------------------------------|
R
-----------------------------------------------------------------------------------|
-----------------------------------------------------------------------------------|
-----------------------------------------------------------------------------------|
-8--8--8--8--------8--8--8-7-5-7-----10--10--10--10---------12--12--12-10-8-10-----|
--**-**-**----------**-**--------------**--**--**-------------**--**---------------|
--55-55-55----------55-55--------------77--77--77-------------88--88---------------|


1:47
             _                           _
L           / \                         / \
------10-8-6-8-6----6-------------10-8-6-8-6----6--------|
-----8-----------10---10-6-------8-----------10---10-6---|
----7---------------------------7------------------------|
---8---------------------------8-------------------------|
-10--------------------------10--------------------------|
---------------------------------------------------------|
R
-------------------------------------------------|
-------------------------------------------------|
-------------------------------------------------|
-8-----8-----8-----8--------8-----8-----8-7-5-7--|
---*-*---*-*---*-*------------*-*---*-*----------|
---5-5---5-5---5-5------------5-5---5-5----------|


1:50
L
------------------__---------------------------------__---------------|
-----------------/  \-------------------------------/  \--------------|
-----9-10-12-10-9-10-9----9-------------9-10-12-10-9-10-9----9--------|
---10------------------12---12-10-----10------------------12---12-10--|
-12---------------------------------12--------------------------------|
----------------------------------------------------------------------|
R
---------------------------------------------------------------|
---------------------------------------------------------------|
---------------------------------------------------------------|
-10-----10-----10-----10------------12-----12-----12-10-8-10---|
----*-*----*-*----*-*------------------*-*----*-*--------------|
----7-7----7-7----7-7------------------8-8----8-8--------------|


1:53
             _                           _
L           / \                         / \
------10-8-6-8-6----6-------------10-8-6-8-6----6--------|
-----8-----------10---10-6-------8-----------10---10-6---|
----7---------------------------7------------------------|
---8---------------------------8-------------------------|
-10--------------------------10--------------------------|
---------------------------------------------------------|
R
-------------------------------------------------|
-------------------------------------------------|
-------------------------------------------------|
-8-----8-----8-----8--------8-----8-----8-7-5-7--|
---*-*---*-*---*-*------------*-*---*-*----------|
---5-5---5-5---5-5------------5-5---5-5----------|


1:56
L
------------------__----------------------------------------|
-----------------/  \---------------------------------------|
-----9-10-12-10-9-10-9----9-------------9-10-12-10-9--------|
---10------------------12---12-10-----10-------------10-----|
-12---------------------------------12----------------------|
------------------------------------------------------------|
R
---------------------------------------------------------------|
---------------------------------------------------------------|
---------------------------------------------------------------|
-10-----10-----10-----10------------12-----12-----12-10-8-10---|
----*-*----*-*----*-*------------------*-*----*-*--------------|
----7-7----7-7----7-7------------------8-8----8-8--------------|


2:00
L
-------------------------------------------------------------------------------------|
-------------------------------------------------------------------------------------|
-----^-------^-------^-------^----------^--------12-10-9-------------12-10-9---------|
----9-10----9-10----9-10----9-10-12-10-9-10---10---------10-9------10--------10-9----|
-12------12------12------12-----------------12----------------10-12---------------10-|
-------------------------------------------------------------------------------------|
R
-----------------------------------------------///---///----------------------------|
---------------------------------------^-------10----8--///---///---///-----///-----|
---------------------------------10-9-7-9--///----------10----9-----7---///--7------|
-------------------------------------------10----------------------------10---------|
------------------------------------------------------------------------------------|
------------------------------------------------------------------------------------|


2:04
L
-----------------------------------------------------------------------------------|
-----------------------------------------------------------------------------------|
-----^-------^-------^-------^----------^--------12-10-9------------9-7-5----^-----|
----9-10----9-10----9-10----9-10-12-10-9-10---10---------10-9-----7-------9-7-9----|
-12------12------12------12-----------------12----------------10-5-----------------|
-----------------------------------------------------------------------------------|
R                                                      ///  ///
-----------------------------------------///--///--///-10---8---///-///--|
-----^------^-----^------^--------^--///-13---12---13-----------12--8----|
----7-9----7-9---7-9----7-9-10-9-7-9--9----------------------------------|
-10-----10-----10----10--------------------------------------------------|
-------------------------------------------------------------------------|
-------------------------------------------------------------------------|

2:08
L
-------------------------------------------------------------------------------------|
-------------------------------------------------------------------------------------|
-----^-------^-------^-------^----------^--------12-10-9-------------12-10-9---------|
----9-10----9-10----9-10----9-10-12-10-9-10---10---------10-9------10--------10-9----|
-12------12------12------12-----------------12----------------10-12---------------10-|
-------------------------------------------------------------------------------------|
R
---------------------------------------------///---///----------------------------|
-----^-------^------^------^---------^-------10----8--///---///---///-----///-----|
----7-9-----7-9----7-9----7-9--10-9-7-9--///----------10----9-----7---///--7------|
-10------10-----10-----10----------------10----------------------------10---------|
----------------------------------------------------------------------------------|
----------------------------------------------------------------------------------|


2;13
L
-----------------------------------------------------------------------------------|
-----------------------------------------------------------------------------------|
-----^-------^-------^-------^----------^--------12-10-9------------9-7-5----^-----|
----9-10----9-10----9-10----9-10-12-10-9-10---10---------10-9-----7-------9-7-9--7-|
-12------12------12------12-----------------12----------------10-5-----------------|
-----------------------------------------------------------------------------------|
R                                                      
-----------------------------------------------------------------------------------------|
-----^------^-----^------^--------^---13-12-10----10----------------------------__-------|
----7-9----7-9---7-9----7-9-10-9-7-9-----------12----12-10-9--10-9----9--------/  \------|
-10-----10-----10----10--------------------------------------------12---12-10-9-10-9--10-|
-----------------------------------------------------------------------------------------|
-----------------------------------------------------------------------------------------|



2:19
B
-----------------------------------------------------------------------------------------|
-----------------------------------------------------------------------------------------|
---------------------------------*-*-*-2-3-5--7----7----7----9----6----6----7-6----------|
-----------*-*-*-2-3-5-2222------2-3-5----------**---**---**---**---**---**-----8-7------|
-5555------1-3-5------------4444----------------88---88---88---88---77---77---------8-7--|
------1111-------------------------------------------------------------------------------|

2:26
B
---------------------------------------_-------------------------------------------------------|
--------------------------------------/ \------------------------------------------------------|
-------------------------------*-*-*-3/5/7/12----12----12----14----15----15----17-15-14--------|
---------*-*-*-0-2-3-----------3-5-7----------*-*---*-*---*-*---*-*---*-*---*-*--------17-15-14|
5555-----0-1-3-------4444-7777---------------1313--1313--1313--1313--1515--1515----------------|
-----1111--------------------------------------------------------------------------------------|


2:33
B
-----------------------------------------------------------------------------------------|
-----------------------------------------------------------------------------------------|
---------------------------------*-*-*-2-3-5--7----7----7----9----6----6----7-6----------|
-----------*-*-*-2-3-5-2222------2-3-5----------**---**---**---**---**---**-----8-7------|
-5555------1-3-5------------4444----------------88---88---88---88---77---77---------8-7--|
------1111-------------------------------------------------------------------------------|

2:40
B
---------------------------------------_-------------------------------------------------------|
--------------------------------------/ \------------------------------------------------------|
-------------------------------*-*-*-3/5/7/12----12----12----14----15----15----17-15-14--------|
---------*-*-*-0-2-3-----------3-5-7----------*-*---*-*---*-*---*-*---*-*---*-*--------17-15-14|
5555-----0-1-3-------4444-7777---------------1313--1313--1313--1313--1515--1515----------------|
-----1111--------------------------------------------------------------------------------------|

2:47
                  __
L                /  \                              ^               ^
------^---8/12-10-13-10------------------------^--8-5--^-------^--8-5--^-----|
---*11-10---------------11------------------*-6-5-----6-5---*-6-5-----6-5----|
-*10----------------------10--------------*-7-------------*-7----------------|
-8--------------------------12--------^---5---------------5------------------|
------------------------------13-12-10-12------------------------------------|
-----------------------------------------------------------------------------|
                       __
 R                    /  \
---------^---12/15-13-17-13--------------------------------------------------|
-----*-15-13---------------15------------------------------------------------|
--*-14-----------------------14----------------------------------------------|
-12----------------------------15--------^-----------------------------------|
---------------------------------17-15-13-15-13-----------15--------12-------|
-----------------------------------------------------------------------------|

2:51
                  __
L                /  \                               _
------^---8/12-10-13-10----------------------------/ \----------|
---*11-10---------------11------------------*-8-6-5-6-5--^------|
-*10----------------------10--------------*-7-----------5-7-----|
-8--------------------------12--------^---5---------------------|
------------------------------13-12-10-12-----------------------|
----------------------------------------------------------------|
                       __
 R                    /  \
---------^---12/15-13-17-13----------------------------------------------|
-----*-15-13---------------15--------------------------------------------|
--*-14-----------------------14------------------------------------------|
-12----------------------------15--------^-------------------------------|
---------------------------------17-15-13-15--8----------10--------7-----|
-------------------------------------------------------------------------|

2:55
                  __
L                /  \                              ^               ^
------^---8/12-10-13-10------------------------^--8-5--^-------^--8-5--^-----|
---*11-10---------------11------------------*-6-5-----6-5---*-6-5-----6-5----|
-*10----------------------10--------------*-7-------------*-7----------------|
-8--------------------------12--------^---5---------------5------------------|
------------------------------13-12-10-12------------------------------------|
-----------------------------------------------------------------------------|
                      __
 R                   /  \
---------^---12/15-13-17-13-------------------------------------------------------------------|
-----*-15-13---------------15-------------------------------/\----------------------/\--------|
--*-14-----------------------14-----------------------/\--141517--/\----------/\--141517------|
-12----------------------------15------- /\-----/\--141517------141517--/\--141517--------/\--|
---------------------------------17-15-131517-131517------------------131517------------131517|
----------------------------------------------------------------------------------------------|

2:58
                  __
L                /  \                               _
------^---8/12-10-13-10----------------------------/ \----------|
---*11-10---------------11------------------*-8-6-5-6-5--^------|
-*10----------------------10--------------*-7-----------5-7-----|
-8--------------------------12--------^---5---------------------|
------------------------------13-12-10-12-----------------------|
----------------------------------------------------------------|
                       __
 R                    /  \
---------^---12/15-13-17-13-----------------------------------/\-----------|
-----*-15-13---------------15--------------------------/\---141517-18-17-15|
--*-14-----------------------14-----------------/\---141517----------------|
-12----------------------------15--------/\---141517-----------------------|
---------------------------------17-15-131517------------------------------|
---------------------------------------------------------------------------|

3:04
L
-------10----------------------8-------------------5---------------5------------|
----------13-11-10---------------11-10---------------8-6-5--^--------8-6-5--^---|
----12-------------12-10----10---------10-9------7---------7-9---7---------7-9--|
-10-----------------------8-----------------10-5---------------5----------------|
--------------------------------------------------------------------------------|
--------------------------------------------------------------------------------|
R
----------------///-------------------------------------------------------------|
------///---///-11///-///-------------------------------------------------------|
///----9----10-----10--9-----///---///---///------------------------------------|
-12--------------------------10-----8-----7----///----///--------///----///-----|
------------------------------------------------8------7----///---7-----8-------|
------------------------------------------------------------10------------------|

3:08
L
-------10----------------------8-------------------5---------------5------------|
----------13-11-10---------------11-10---------------8-6-5--^--------8-6-5--^---|
----12-------------12-10----10---------10-9------7---------7-9---7---------7-9--|
-10-----------------------8-----------------10-5---------------5----------------|
--------------------------------------------------------------------------------|
--------------------------------------------------------------------------------|
R
----------------///-------------------------------------------------------------|
------///---///-11----///-----///-----------------------------------------------|
///----9----10---------10------9-----///---///---///----------------------------|
-12----------------------------------10-----8-----7----///----///----///--------|
--------------------------------------------------------10-----8------7---///---|
---------------------------------------------------------------------------10---|

3:13
L
-------10----------------------8-------------------5---------------5------------|
----------13-11-10---------------11-10---------------8-6-5--^--------8-6-5--^---|
----12-------------12-10----10---------10-9------7---------7-9---7---------7-9--|
-10-----------------------8-----------------10-5---------------5----------------|
--------------------------------------------------------------------------------|
--------------------------------------------------------------------------------|
R
----------------///-------------------------------------------------------------|
------///---///-11----///-----///-----------------------------------------------|
///----9----10---------10------9-----///---///---///----------------------------|
-12----------------------------------10-----8-----7----///----///----///--------|
--------------------------------------------------------10-----8------7---///---|
---------------------------------------------------------------------------10---|

3:17

L
-------10----------------------8------------------------------------------------|
----------13-11-10---------------11-10------------------------------------------|
----12-------------12-10----10---------10-9---7---------------------------------|
-10-----------------------8-----------------------10----8----7---8---10---------|
--------------------------------------------------------------------------------|
--------------------------------------------------------------------------------|
R
----------------///----------------------------------------------|
------///---///-11----///-----///--10----------------------------|
///----9----10---------10------9--------12----10---9---10---12---|
-12--------------------------------------------------------------|
-----------------------------------------------------------------|
-----------------------------------------------------------------|

3:22
B
-----------------------------------------------------------------------------------------------|
-----------------------------------------------------------------------------------------------|
--------------------------------------------_-----------------------------------------------_--|
-------------------------------------------/ \---------------------------------------------/ \-|
5-*-*-5-*-*-5-*-*-5-*-*-3-*-*-3-*-*-3-*-*-0-1-3-5-*-*-5-*-*-5-*-*-5-*-*-3-*-*-3-*-*-3-*-*-0-1-3|
--1-1---1-1---1-1---1-1---0-0---0-0---0-0---------1-1---1-1---1-1---1-1---0-0---0-0---0-0------|

3:30
B
----------------------------------------------------------------------------------------|
----------------------------------------------------------------------------------------|
-------------------------------------------------------------------------P--------------|
--------------------------------------^----------------------------------H--------------|
-8-*-*-8-*-*-8-*-*-6-*-*-5-*-*-5-*-*-6-5---5-----6-*-*-6-*-*-6-*-*-6-*-*-5~~~PS---------|
---5-5---5-5---5-5---5-5---5-5---5-5-----8---8-7---3-3---3-3---3-3---3-3-------\--------|

3:38
B
--------------------------------------------------------------------------------------------|
--------------------------------------------------------------------------------------------|
---------------------------------*-*-*-2-3-5-3-*-*-3-*-*-3-*-*-7-*-*-2-*-*-2-*-*-5-3-2------|
-----------*-*-*-2-3-5-2222------2-3-5---------5-5---5-5---5-5---5-5---3-3---3-3-------5-3-2|
-5555------1-3-5------------4444------------------------------------------------------------|
------1111----------------------------------------------------------------------------------|

3:45
B
-----------------------------------------------------------------------------------------|
-----------------------------------------------------------------------------------------|
---------------------------------*-*-*-2-3-5--7----7----7----9----6----6----7-6----------|
-----------*-*-*-2-3-5-2222------2-3-5----------**---**---**---**---**---**-----8-7------|
-5555------1-3-5------------4444----------------88---88---88---88---77---77---------8-7--|
------1111-------------------------------------------------------------------------------|

3:52
B
--------------------------------------------------------------------------------------------|
--------------------------------------------------------------------------------------------|
---------------------------------*-*-*-2-3-5-3-*-*-3-*-*-3-*-*-7-*-*-2-*-*-2-*-*-5-3-2------|
-----------*-*-*-2-3-5-2222------2-3-5---------5-5---5-5---5-5---5-5---3-3---3-3-------5-3-2|
-5555------1-3-5------------4444------------------------------------------------------------|
------1111----------------------------------------------------------------------------------|

3;58
B
------------------------------------------------------------------L-P---------R--P--------|
--------------------------------------------------------------------H^--P--------H^-P-----|
---------------------------------*-*-*-2-3-5--7----7----7----9----6-7-6-H^--P--6-7-6H^-P--|
-----------*-*-*-2-3-5-2222------2-3-5----------**---**---**---**-------8-7-H^------8-7H^-|
-5555------1-3-5------------4444----------------88---88---88---88-----------8-7--------8-7|
------1111--------------------------------------------------------------------------------|


4:05
B
------------------------------------------------------------------|
------------------------------------------------------------------|
------------------------------------------------------------------|
-*----*--*--*--*-*----*--------*----*--*--*--*-*----*-------------|
-0----0--0--0--0-0----0--1--4--0----0--0--0--0-0----0--1------4---|
-0----0--1--1--1-0----0--1--4--0----0--1--1--1-0----0--1------4---|

4:15
B
------------------------------------------------------------------------------------------------|
------------------------------------------------------------------------------------------------|
--------------------_-----------------------_-----------------------------------_---------------|
------*-*-*-4-*-*--/ \--------*-*-*-4-*-*--/ \---------^--4-------*-*-*-4-*-*--/ \--************|
*-*-*-0-3-6---6-3-0-3-6-*-*-*-0-3-6---6-3-0-3-6-*-*-*-3-6---*-*-*-0-3-6---6-3-0-3-6-111111444444|
0-1-4-------------------0-1-4-------------------0-1-4-------0-1-4-------------------111111444444|

4:22
B
------------------------------------------------------------------------------------------------|
------------------------------------------------------------------------------------------------|
--------------------_-----------------------_-----------------------------------_---------------|
------*-*-*-4-*-*--/ \--------*-*-*-4-*-*--/ \---------^--4-------*-*-*-4-*-*--/ \--************|
*-*-*-0-3-6---6-3-0-3-6-*-*-*-0-3-6---6-3-0-3-6-*-*-*-3-6---*-*-*-0-3-6---6-3-0-3-6-111111444444|
0-1-4-------------------0-1-4-------------------0-1-4-------0-1-4-------------------111111444444|

4:29
B
------------------------------------------------------------------------------------------------|
------------------------------------------------------------------------------------------------|
--------------------_-----------------------_-----------------------------------_---------------|
------*-*-*-4-*-*--/ \--------*-*-*-4-*-*--/ \---------^--4-------*-*-*-4-*-*--/ \--************|
*-*-*-0-3-6---6-3-0-3-6-*-*-*-0-3-6---6-3-0-3-6-*-*-*-3-6---*-*-*-0-3-6---6-3-0-3-6-111111444444|
0-1-4-------------------0-1-4-------------------0-1-4-------0-1-4-------------------111111444444|

4:36
------------------------------------------------------------------------------------------|
------------------------------------------------------------------------------------------|
------------------------------------------------------------------------------------------|
-******-*-*-*-************-*-*-*-*-*-*--------------------------4-------------------------|
-333333-4-3-1-444444333333-9-9-9-8-8-8-*-*-*-0-3-6--*-*-*-0-3-6---*-*-*-0-3-6-*-*-*-0-3-6-|
-333333-4-3-1-444444333333-9-9-9-8-8-8-0-1-4--------0-1-4---------0-1-4-------0-1-4-------|

4:44
--------------------------------------------------------------------|
-------------P------------------------------------------------------|
-------------H------------------------------------------------------|
-------------4--------------------------------------4---------------|
-*-*-*-0-3-6---*-*-*-0-3-6-*-*-*-0-3-6--*-*-*-0-3-6---*-*-*-0-3-6---|
-0-1-4---------0-1-4-------0-1-4--------0-1-4---------0-1-4---------|


comments
We did not receive enough feedback on this tab! Please rate:
print report bad tab
1 2 3 4 5
I want to post or [tab]
guest
You may want to rate the tab now too:
select rating
Please do not post tabs as comments. Select "correction" instead!