Oops, an error
Loading. Please wait.

Tales Of Sirens Tab

914 views 1 this week
3 commentsread comments
1 2 3 4 5
excellent!
x 4
Autoscroll
+/-
esc
set tempo
stop
Contributor
Hey! There's an official Ultimate Guitar app which is ideal
for learning songs when you're away from computer. Get the app
WARNING: You are trying to view
                                    content from Ultimate-Guitar.com
                                    in an unauthorized application,
                                    which is prohibited.

                                    Please use an official Ultimate
                                    Guitar Tabs application for iPhone,
                                    iPad or Android to access legitimate
                                    chords, guitar, bass, and drum tabs
                                    from Ultimate-Guitar.com database.

                                    Type "ultimate guitar tabs" in Apple
                                    App Store's or Android Market's
                                    search to find the application.
3/5 stars is what I give this tab since it's only one guitar...but! it should be
about 95% correct. Only thing wrong with it is probably where you play it, but
the notes should be dead on.

Tuning is down one whole step and drop C. (DAFCGC)

Song: Tales Of Sirens
Artist: With Passion
Album: What We See When We Shut Our Eyes

Tabber: Mystievel
(u can call me Tofer)
To see this tab in action go here: http://youtube.com/watch?v=HPDa-_i4b_I

h= Hammer on
p= Pull off
/\= slide up or down
pm= palm mute
.= palm mute
hm/= Harmonic with bend
hm= Harmonic
~= Swivel...wavy note
b= bend upwards to note
||= Specefic measures you repeat, repetition number is underneath the measure.
Please rate my tab once your done with it!! :]

0:00
D---------------------------------------------------------------------------|
A---------------------------------------------------------------------------|
F---------------------------------------------------------------------------|
C---7------1087------------------7------78107---78105-----------------------|
G000-857-------875----5875----000-857--------85------737810-----------------|
C000----107-------1078----108-000----107------------------------------------|
X3 on fourth…


D---------------------------------------------------------------------------|
A---------------------------------------------------------------------------|
F-----------------------------------7~7-9-10--10------7-------9-------------|
C-----7----------7-8-10-------7~~8~~---------8~-----8------10---------------|
G-000---8-5-7-----------8~~10~~-------------------8-----10------------------|
C-000--------10-8-----------------------------------------------------------|

D---------------------------------------------------------------------------|
A---------------------------------------------------------------------------|
F-7~79107--57857810--7~7910-10-----7----9-7~79107---57857810----------------|
C--------10----------------8~----8----10---------10-------------------------|
G-------------------------------8----10-------------------------------------|
C---------------------------------------------------------------------------|

D---------------------------------------------------------------------------|
A---------------------------------------------------------------------------|
F-------7---------------5--75------7----------------------------------------|
C--------857---------578-78----------857-----------------57-----------------|
G-000000----857---578--------000000-----857----57875--578-------------------|
C-000000-------107-----------000000--------1078------8----------------------|

D----|----------------------------------------------------------------------|
A----|----------------------------10-8--------------8-----------------------|
F----|-----7-7-7-5-9-7-----------9-----10-9--------9--10-9------------------|
C----|-----------------8--7-8-10------------7-8-10--------10----------------|
G-0--|---00-0-0-0-0-0-------------------------------------------------------|
C-0--|---00-0-0-0-0-0-------------------------------------------------------|
  .      .. . . . . .
D--------------------------------------------------------|------------------|
A-----------10-8---------10---10~-----11---11~-----------|------------------|
F---7-7-7-9------9-----10---10------10---10--------------|------------------|
C---------------------8-----------10---------------------|------------------|
G-00-0-0-0-0--0-0----------------------------------------|------------------|
C-00-0-0-0-0--0-0----------------------------------------|------------------|

|X2…|

1:00
D-----12b13r12--------------------------------------------------------------|
A-10~~--------13-11~-10lb11lr10b11r10----------11r10~b11r10-----13~~~~~-----|
F-------------------------------------10---12----------------10-------------|
C---------------------------------------------------------------------------|
G---------------------------------------------------------------------------|
C---------------------------------------------------------------------------|

D------13-12b13r12---------------------10---13--12--12------12---9---(9)\12-|
A--10~~-----------13-11~-10b11r10-----11--11--11--11--11--11------8-8-------|
F--------------------------------10-12-------------------9-----9---6--------|
C---------------------------------------------------------------------------|
G---------------------------------------------------------------------------|
C---------------------------------------------------------------------------|

D-|----------------------------------|----------|--------------------------|
A-|----------------------------------|----------|--------------------------|
F-|----------------------------5hm/\/|----------|--------------------------|
C-|---------------5hm/---5hm/--------|----------|------------5hm/\/\~~-----|
G-|1-4-2-0-0-3-1-0-----01---01-------|----------|-1-420-0310---------------|
C-|--4-2-0---3-1-0-----01---01-------|X4 on 4th…|---420--310---------------|
     . . .   . . .     ..   ..                      ...  ...
D|--------------------------------------------------------------------------------|
A|---------------------------------------------------7107-7-----------------------|
F|------------------------5hm/\/~------------------------8-85/8-------------------|
C|-----------5hm/---5hm/------------5hm/--7107-7----------------------------------|
G|1-420-0-310----01-----01------1-420--310----9-96/9-----------00000--00000-000---|
C|--420---310----01-----01--------420--310---------------------00000--00000-000---|
|X2|...   ...    ..     ..        ...  ...                     (pm----------------|)

D|-------------------------------------------------------------------------|
A|-------------------------------------------------------------------------|
F|-----------------------5hm/----------------------------------------------|
C|-------------------------------------------------------------------------|
G|11------00--------11442----11------00------8p5h8p5-7p3h7p3-5p1h5p1-3p0---|
C|--442200--331100-0--442------442200--331100---------------------------1p0|
|X3|

D|-------------------------------------------------------------------------|
A|-------------------------------------------------------------------------|
F|-----------------------5hm/----------------------5hm/-5hm/---------------|
C|-1-------0-------1---------1-------0-------1-----------------------------|
G|-1-4-2-0-0-3-1-0-1-4-3-----1-4-2-0-0-3-1-0-1-4-3-----5-------------------|
C|---4-2-0---3-1-0---4-3-------4-2-0---3-1-0---4-3-----5-------------------|
|X2| . . .   . . .   . .       . . .   . . .   . .     .

2:20
D---------------------------------------------------------------------------|
A--------------------7-10-7---7---------------------------------------------|
F----------------------------8-8-5/8---5-8-5---5----------------------------|
C--7-10-7---7--------------------------------7--7-8-7-----------------------|
G---------9--9-6/9----------------------------------------------------------|
C---------------------------------------------------------------------------|

D---------------------------------------------------------------------------|
A---------------------------8--8--10--11--10--8-----------------------------|
F----------7-10-7--------------------------------10~------------------------|
C---8-8-10---------10~------------------------------------------------------|
G-----------------------1010-10-10--10--10--10-10---------------------------|
C-88-8-8--8-8--8-8----------------------------------------------------------|
  .. . .  . .  . .
D---------------------------------------------------------------------------|
A---------------------------------------------------------------------------|
F----------7-10-7----------------------------------------3h5p3--------------|
C---8-8-10---------10~----------1h3p1-------------------------7p3-3h5-------|
G-----------------------11-1h3h5-----5p1-1h3--11-33-3h5h7-------------------|
C-88-8-8--8-8--8-8------11--------------------11-33-------------------------|
  .. . .  . .  . .      ..                    .. ..
D---------------------------------------------------------------------------|
A--------------------------8--10--11---13-11-10-8-11-10-8-------------------|
F----------7-10-7-----------------------------------------10~---------------|
C---8-8-10--------10~-------------------------------------------------------|
G----------------------1010-10--10--10--------------------------------------|
C-88-8-8--8-8--8-8----------------------------------------------------------|
  .. . .  . .  . .
D---------------------------------------------------------------------------|
A---------------------------------------------------------------------------|
F----------7-10-7----------------------------------------3h5p3--------------|
C---8-8-10---------10~----------1h3p1-------------------------7p3-3h5-------|
G-----------------------11-1h3h5-----5p1-1h3--11-33-3h5h7-------------------|
C-88-8-8--8-8--8-8------11--------------------11-33-------------------------|
  .. . .  . .  . .      ..                    .. ..
D---------------------------------------------------------------------------|
A---------------------------8--8--10--11--10--8-----------------------------|
F----------7-10-7---------------------------------10~-----------------------|
C---8-8-10---------10~------------------------------------------------------|
G-----------------------1010-10-10--10--10--10-10---------------------------|
C-88-8-8--8-8--8-8----------------------------------------------------------|
  .. . .  . .  . .
D---------------------------------------------------------------------------|
A---------------------------------------------------------------------------|
F----------7-10-7----------------------------------------3h5p3--------------|
C---8-8-10---------10~----------1h3p1-------------------------7p3-3h5-------|
G-----------------------11-1h3h5-----5p1-1h3--11-33-3h5h7-------------------|
C-88-8-8--8-8--8-8------11--------------------11-33-------------------------|
  .. . .  . .  . .      ..                    .. ..
D---------------------------------------------------------------------------|
A---------------------------------------------------------------------------|
F---------------------------------------------------------------------------|
C---------1h3p1-------------------------------------------------------------|
G-11-1h3h5-----5p1-1h3-11-33------------------------------------------------|
C-11-------------------11-33------------------------------------------------|
  ..                   .. ..

(I guess you could call this the "Solo")
2:52
D---------------------------------------------------------------------------|
A-----13--10h11--13-13--10h11-8h10----13--13h15-11-15/13--13h15-11h13-10h11-|
F---12---------12-------------------12--------------------------------------|
C---------------------------------------------------------------------------|
G-10----10------------10----------10----10--------------10------------------|
C---------------------------------------------------------------------------|

D-----13/15---------------------8---8---------------------------------------|
A---13--------11------10------8---10---10h11--13-10--13h15-11h13------------|
F-12------------12------10-----8-----10-----12-----10-----------------------|
C---------------------------------------------------------------------------|
G-----------10----10-8-----8-6---8------------------------------------------|
C---------------------------------------------------------------------------|

D----------------11--------------------------13h1511h13---------------------|
A-----13--13h15----13--13h15-11h13-10h11-8/11----------11\6~~---------------|
F---12---------12----12-----------------------------------------------------|
C---------------------------------------------------------------------------|
G-10----10------------------------------------------------------------------|
C---------------------------------------------------------------------------|

D---------------------------------------8-----------------------------------|
A---------------------------13--10/13----10-13h15-11h13---------------------|
F---14\10----12\8----8\12-10--10------10------------------------------------|
C-------------------8-------------------------------------------------------|
G-10-----10-8----8-6-----8--------------------------------------------------|
C---------------------------------------------------------------------------|

D----------------11-----------------------13/15----------------6/10~~--------|
A-----13--13h15----13--13h1511h1310h11--13-------11-----10----8----11~10~~---|
F---12---------12---------------------12-----------12-----10------------10~~-|
C----------------------------------------------------------------------------|
G-10----10-----------10------------------------10----108----86---------------|
C----------------------------------------------------------------------------|

(Here's some fun sweep picking for you)
D|------------------------------10p6---6-10p6-8p5---5-8p5--5---------------|
A|-10p6----6-10p6-10p6----6-10p6----8-8----------6-6-----6-----------------|
F|-----7--7-----------7--7-----------7------------5------------------------|
C|-------------------------------------------------------------------------|
G|------10-------------10--------------------------------------------------|
C|-------------------------------------------------------------------------|
|X2|

D-------------------------------10p6---6-10p6-8p5-----5h8-------------------|
A--10p6----6-10p6-10p6----6-10p6----8-8----------6-6h8----------------------|
F------7--7-----------7--7-----------7------------5-------------------------|
C---------------------------------------------------------------------------|
G-------10-------------10---------------------------------------------------|
C---------------------------------------------------------------------------|

D-------------------------------10p6----6-8-10-12-10-12-13-15-13-12-13------|
A--10p6----6-10p6-10p6----6-10p6----8-8-------------------------------------|
F------7--7-----------7--7-----------7--------------------------------------|
C---------------------------------------------------------------------------|
G-------10-------------10---------------------------------------------------|
C---------------------------------------------------------------------------|
[
D|20p17------1720p17-18p15------1518p15-17p13------1317p13-171513-----------131517-|
A|-----18--18-------------17--17-------------15--15--------------171513131517------|
F|-------17-----------------17-----------------14----------------------------------|
C|---------------------------------------------------------------------------------|
G|---------------------------------------------------------------------------------|
C|---------------------------------------------------------------------------------|

D-20p17------1720p17-18p15------1518p15-17p13------1317p13-----------------|
A------18--18-------------17--17-------------15--15-------15~~-------------|
F--------17-----------------17-----------------14--------------------------|
C--------------------------------------------------------------------------|
G--------------------------------------------------------------------------|
C--------------------------------------------------------------------------|
|X2|]

3:45
D------------17--17-18-20-17-20-22-20~--------------------------------------|
A-18-17-18-20--20-----------------------------------------------------------|
F---------------------------------------------------------------------------|
C---------------------------------------------------------------------------|
G---------------------------------------------------------------------------|
C---------------------------------------------------------------------------|


D-17-18-15-18-13-17-12-15-9-12--------------------------------------10-13-9-|
A---------------------------------------------------------------------------|
F-----------------------------9-12-10-14-9-12-7-10----7-10-9-12-10-14-------|
C-------------------------------------------------8-11----------------------|
G---------------------------------------------------------------------------|
C---------------------------------------------------------------------------|

D-18p15--------------------------------------------------------------------|
A------17--15-17-----------------------------------------------------------|
F--------18----------------------------------------------------------------|
C--------------------------------------------------------------------------|
G--------------------------------------------------------------------------|
C--------------------------------------------------------------------------|

D-17-18-15-18-13-17-12-15-9-12--------------------------------------10-13-9-|
A---------------------------------------------------------------------------|
F-----------------------------9-12-10-14-9-12-7-10----7-10-9-12-10-14-------|
C-------------------------------------------------8-11----------------------|
G---------------------------------------------------------------------------|
C---------------------------------------------------------------------------|

D-18p15------------18\15---15\12------------15\12-15-18---------------------|
A------17--17-18-17-----17------14-17\14-17---------------------------------|
F--------18-----------------------------------------------------------------|
C---------------------------------------------------------------------------|
G---------------------------------------------------------------------------|
C---------------------------------------------------------------------------|

D|-------------------------------------------------------------------------|
A|-------------------------------------------------------------------------|
F|-10-10-12-14-9-9-10-12-----------------10-9------------------------------|
C|----------------------10-10-12-14-12-12----------------------------------|
G|-------------------------------------------------------------------------|
C|-------------------------------------------------------------------------|
|X4|

D|--------------------------------------|----------------------------------|
A|---------10--------8------------------|----------------------------------|
F|-------10--------9---------5----------|-------9h10h12--------------------|
C|-12---------10-------7----5---8-------|8h10h12---------------------------|
G|---000--------000---------------------|----------------------------------|
C|---000--------000-----888-------101010|----------------------------------|
                                                                                         
                                                                                        
                                 ...        ...     ...       . . .
|X4 on fourth…|


D|---------------------8h10h12--|-------------------|
A|--------------8h10h12---------|-------------------|
F|--------7h9h10----------------|-------------------|
C|--7h9h10----------------------|-------------------|
G|------------------------------|--00000-00000-0000-|
C|------------------------------|--00000-00000-0000-|

4:33
D---------------------------------------------------------------------------|
A---------------------------------------------------------------------------|
F---------------------------------------------------------------------------|
C---7------1087------------------7------78107---78105-----------------------|
G----857-------875----5875----000-857--------85------737810-000-------------|
C-------107-------1078----108-000----107--------------------000-------------|
                              ...                           ...
D---------------------------------------------------------------------------|
A---------------------------------------------------------------------------|
F-----------------------------------------------------7~-7910-10~--7----9---|
C---7------1087------------------7------78107----7~~---------8----8---10----|
G----857-------875----5875----000-857--------8~10~---0-----------8--10------|
C-------107-------1078----108-000----107-------------0----------------------|
                                                     .(pause)
D--------------------------------------------------------------------------------|
A--------------------------------------------------------------------------------|
F--7~79107--57857810-7~7910--10-----7----9--7~79107--57857810--------------------|
C---------10---------------8~-----8----10----------10----------------------------|
G-------------------------------8---10-------------------------------------------|
C--------------------------------------------------------------------------------|

D|-------------------------------------------------------------------------|
A|-------------------------------------------------------------------------|
F|------7---------------5--75------7---------------------------------------|
C|-------857---------578-78----------857-----------------57----------------|
G|000000----857---578--------000000-----857----57875--578------------------|
C|000000-------107-----------000000--------1078------8---------------------|
  ......                     ......
|X2|


D|-------------------------------------------------------------------------|
A|-------------------------------------------------------------------------|
F|-------------------------------------------------------------------------|
C|-------------------------------------------------------------------------|
G|-00000-00-000---000------------------------------------------------------|
C|-00000-00-000---000------------------------------------------------------|
                                                                                         
                                                             ..... .. ...   ...
|X4 then goes over sweep picking|
5:21
D-17p13------17p13-17p13---13---------15-18---18p15--18p15---18p15----------|
A------15--15-----------15---15-----16-----16-------------16------16---16---|
F--------14--------------------14-15--------------------------------15---15-|
C---------------------------------------------------------------------------|
G---------------------------------------------------------------------------|
C---------------------------------------------------------------------------|

D-17p13------17p13-17p13---13------13p10-------------10-13p10-15p12---------|
A------15--15-----------15---15---------11---------11-------------11--------|
F--------14--------------------14---------10-----10----------------12----12-|
C-------------------------------------------12-12-------------------14--14--|
G---------------------------------------------13----------------------15----|
C---------------------------------------------------------------------------|

D|-----------12------------------------------------------------------------|
A|-------------13--13-----------11~----------------------------------------|
F|---10-14-10----12---------12--------------12~-------14-12----------------|
C|-12------------------10-14--14--------14----------15-----15-14-----------|
G|---------------------------------12-15--15---13-17------------15---------|
C|-------------------------------------------------------------------------|
|X2|

D------------12---------------10---------------------------------------------|
A--------------13--13-----------11--11---------------------------------------|
F----10-14-10----12-------12------12-----------12---------------14-12--------|
C--12----------------10-14--14-------------14----14--14-------15-----15-14---|
G-------------------------------------12-15--15----15----13-17------------15-|
C----------------------------------------------------------------------------|


D------------12---------------10--------------------------------------------17-------|
A--------------13--13-----------11--11----------------------------1315171820--201817-|
F----10-14-10----12-------12------12-------------12---------121415-------------------|
C--12----------------10-14--14-------------14--14--14--121415------------------------|
G-------------------------------------12-15--15------15------------------------------|
C------------------------------------------------------------------------------------|

6:06
D17p10h13h17p10h13h17p10h13h18p10h13h17p10h13h15p10h13h17-------------------|
A---------------------------------------------------------------------------|
F---------------------------------------------------------------------------|
C---------------------------------------------------------------------------|
G---------------------------------------------------------------------------|
C---------------------------------------------------------------------------|

D17p10h13h17p10h13h17p10h13h15p10h13h17p10h13h18p10h13h17-------------------|
A---------------------------------------------------------------------------|
F---------------------------------------------------------------------------|
C---------------------------------------------------------------------------|
G---------------------------------------------------------------------------|
C---------------------------------------------------------------------------|

D15p8h12h15p8h12h15p8h12h17p8h12h15p8h12h13p8h12h15-------------------------|
A---------------------------------------------------------------------------|
F---------------------------------------------------------------------------|
C---------------------------------------------------------------------------|
G---------------------------------------------------------------------------|
C---------------------------------------------------------------------------|

D12p5h9h12p5h9h12p5h9h13p5h9h15p5h9h13p5h9h12-------------------------------|
A---------------------------------------------------------------------------|
F---------------------------------------------------------------------------|
C---------------------------------------------------------------------------|
G---------------------------------------------------------------------------|
C---------------------------------------------------------------------------|

D---------------------------------------------------------------------------|
A---------------------------------------------------------------------------|
F---------------------------------------------------------------------------|
C---------------------------------------------------------------------------|
G-00-0-0000---00-0-0000-0-0-------------------------------------------------|
C-00-0-0000---00-0-0000-0-0-------------------------------------------------|
  .. . ....   .. . .... . .
6:30
Please rate it to let me know how you think I did!
And there you have it from start to finish just follow the repeats and enjoy
memorizing this biz!!!
comments
print report bad tab
3 comments total.
0 reply
AmandaR*420 wrote on January 16 2008, 05:10 pm

HOLY MOLY!!!!!!
note for note its perfect!!!

0 reply
YourMessiah666 wrote on January 17 2009, 03:15 pm

**** yeah this is spot on, good job

0 reply
asiwsguitarist wrote on April 30 2009, 10:19 pm

theoretically, with passion is a great band, but the fact that they neglected to use a click track on their guitar recordings is very apparent in both of their cd's. i'm confident that they would be much more popular if they were a little tighter on their recordings. but i digress.. this tab is excellent. 5 stars

I want to post or [tab]
guest
You may want to rate the tab now too:
select rating
Please do not post tabs as comments. Select "correction" instead!