Oops, an error
Loading. Please wait.

What We See When We Shut Our Eyes Tab

97 views 3 this week
no commentswrite comment
1 2 3 4 5
excellent!
x 1
Autoscroll
+/-
esc
set tempo
stop
Contributor
Difficulty
Tuning
advanced
C G C F A D
WARNING: You are trying to view
                                    content from Ultimate-Guitar.com
                                    in an unauthorized application,
                                    which is prohibited.

                                    Please use an official Ultimate
                                    Guitar Tabs application for iPhone,
                                    iPad or Android to access legitimate
                                    chords, guitar, bass, and drum tabs
                                    from Ultimate-Guitar.com database.

                                    Type "ultimate guitar tabs" in Apple
                                    App Store's or Android Market's
                                    search to find the application.
WITH PASSION
WHAT WE SEE WHEN WE SHUT OUR EYES
CGCFAD

TABBED BY-andherembrace

belialbeast@gmail.com

if you're gonna deny this please give me an explanation on why

0:00

L                                                   __
--------------------------------------------__-----/  \----------------------------|
-------__----------------------------------/  \---8-10-11-8-10-11-15-13------------|
------/  \-----_--------------------__----9-10-12-----------------------14-10-12-14|
-----8-10-12--/ \------------------/  \--------------------------------------------|
-*-*---------7-8-10-7---*-*--*-*-10-12-13------------------------------------------|
-0-0--------------------0-0--0-0---------------------------------------------------|
R
-------------------------------------------------_-----------PH-------------------|
-------__---------------------------------_-----/ \----------11-------------------|
------/  \-----_-------------------_-----/ \---7-9-10-7-9-10----10-9----9-10------|
-----8-10-12--/ \-----------------/ \---7-8-10-----------------------12-----------|
-*-*---------7-8-10-4---*-*--*-*-7-8-10-------------------------------------------|
-0-0--------------------0-0--0-0--------------------------------------------------|

0:06
L
--------------------------------------------------------------------------|
-------------------__--------__----------------------__--------_----------|
-----------__-----/  \------/  \-----__-------__----/  \------/ \----_----|
----------/  \--12-14-15--14-12-10--/  \-----/  \--8-10-12--10-8-7- / \---|
-*-*-*--12-14-15------------------14-12-10--8-10-12---------------10-8-7--|
-0-0-0--------------------------------------------------------------------|
R
------------------------------------------------------------------|
-----------------__--------_-------------------_------_-----------|
----------__----/  \------/ \-----_------_----/ \----/ \----_-----|
---------/  \--8-10-12--10-8-7---/ \----/ \--5-7-8--7-5-3--/ \----|
-*-*-*--8-10-12----------------10-8-7--5-7-8--------------7-5-3---|
-0-0-0------------------------------------------------------------|

0:09
L
-----------------------------------------__-------------8------------------|
-------__-------------------------------/  \----8-10-11----11-10-----------|
------/  \-----_------------------__---9-10-12-------------------9-10-12---|
-----8-10-12--/ \----------------/  \--------------------------------------|
-*-*---------7-8-10-7-*-*--*-*-10-12-13------------------------------------|
-0-0------------------0-0--0-0---------------------------------------------|
R
----------------------------------------------------PH-----------P---------|
-------__-------------------------------_-----------11-----------H---------|
------/  \-----_-----------------_-----/ \---7-9-10----10-9----7-9---------|
-----8-10-12--/ \---------------/ \---7-8-10----------------11-------------|
-*-*---------7-8-10-4-*-*--*-*-7-8-10--------------------------------------|
-0-0------------------0-0--0-0---------------------------------------------|

0:14
L
--------------------------------------------------------------------------|
-------------------__--------__----------------------__--------_----------|
-----------__-----/  \------/  \-----__-------__----/  \------/ \----_----|
----------/  \--12-14-15--14-12-10--/  \-----/  \--8-10-12--10-8-7- / \---|
-*-*-*--12-14-15------------------14-12-10--8-10-12---------------10-8-7--|
-0-0-0--------------------------------------------------------------------|
R
------------------------------------------------------------------|
-----------------__--------_-------------------_------_-----------|
----------__----/  \------/ \-----_------_----/ \----/ \----_-----|
---------/  \--8-10-12--10-8-7---/ \----/ \--5-7-8--7-5-3--/ \----|
-*-*-*--8-10-12----------------10-8-7--5-7-8--------------7-5-3---|
-0-0-0------------------------------------------------------------|

0:18
L                                                   __
--------------------------------------------__-----/  \----------------------------|
-------__----------------------------------/  \---8-10-11-8-10-11-15-13------------|
------/  \-----_--------------------__----9-10-12-----------------------14-10-12-14|
-----8-10-12--/ \------------------/  \--------------------------------------------|
-*-*---------7-8-10-7---*-*--*-*-10-12-13------------------------------------------|
-0-0--------------------0-0--0-0---------------------------------------------------|
R
-------------------------------------------------_-----------PH-------------------|
-------__---------------------------------_-----/ \----------11-------------------|
------/  \-----_-------------------_-----/ \---7-9-10-7-9-10----10-9----9-10------|
-----8-10-12--/ \-----------------/ \---7-8-10-----------------------12-----------|
-*-*---------7-8-10-4---*-*--*-*-7-8-10-------------------------------------------|
-0-0--------------------0-0--0-0--------------------------------------------------|

0:24
L
------------------------------------------------------------------------------|
-------------------__--------__----------------------__-----------------------|
-----------__-----/  \------/  \-----__-------__----/  \---9--10--12--5--7--9-|
----------/  \--12-14-15--14-12-10--/  \-----/  \--8-10-12--------------------|
-*-*-*--12-14-15------------------14-12-10--8-10-12---------------------------|
-0-0-0------------------------------------------------------------------------|
R
------------------------------------------------------------------------|
-----------------__--------_-------------------_------------------------|
----------__----/  \------/ \-----_------_----/ \-----------------------|
---------/  \--8-10-12--10-8-7---/ \----/ \--5-7-8--7--8--10--7--8--10--|
-*-*-*--8-10-12----------------10-8-7--5-7-8----------------------------|
-0-0-0------------------------------------------------------------------|

0:29
BOTH
---------------------------------------------------------------------------_--PH---|
---------------------------------------------------------------------_----/ \--3---|
---------------------------------------------------------------_----/ \--2-3-5-----|
------8---------8---------7---------7---------5----3----2-----/ \--2-3-5-----------|
-5-**---**-5-**---**-3-**---**-3-**---**-1-**---**---**---**-1-3-5-----------------|
---00---00---00---00---55---55---55---55---33---33---33---33-----------------------|

0:35
B
-----------------------------------------------------------------------------|
------------------_---------------------_------------------------------------|
-----------------/ \-------------------/ \-----------------------------------|
------8---------5-7-8------10---------7-8-10---------------------------------|
-5-**---**-5-**-------7-**----**-7-**--------8--*-*-12--*-*-10--*-*-8--*-*---|
---00---00---00---------99----99---99----------1010----1010----1010---1010---|

0:39
B
--------------------------------------------------------|
--------------------------------------------------------|
--------------------------------------------^-----------|
-----------------8-7-----------------------575---5------|
---------8-10-12-----10-7-8-10-------5-7-8-----8---8-7--|
-8-10-12-----------------------5-7-8--------------------|

0:42
B
---------------------------------------------------------------------------_--PH---|
---------------------------------------------------------------------_----/ \--3---|
---------------------------------------------------------------_----/ \--2-3-5-----|
------8---------8---------7---------7---------5----3----2-----/ \--2-3-5-----------|
-5-**---**-5-**---**-3-**---**-3-**---**-1-**---**---**---**-1-3-5-----------------|
---00---00---00---00---55---55---55---55---33---33---33---33-----------------------|

0:48
B
-----------------------------------------------------------------------------|
------------------_---------------------_------------------------------------|
-----------------/ \-------------------/ \-----------------------------------|
------8---------5-7-8------10---------7-8-10---------------------------------|
-5-**---**-5-**-------7-**----**-7-**--------8--*-*-12--*-*-10--*-*-8--*-*---|
---00---00---00---------99----99---99----------1010----1010----1010---1010---|

0:51
B
--------------------------------------------------------|
--------------------------------------------------------|
--------------------------------------------^-----------|
-----------------8-7-----------------------575---5------|
---------8-10-12-----10-7-8-10-------5-7-8-----8---8-7--|
-8-10-12-----------------------5-7-8--------------------|

0:55
B
---------------------------------------------------------------------------_--PH---|
---------------------------------------------------------------------_----/ \--3---|
------PH-------PH--------PH--------PH--------PH---PH---PH------_----/ \--2-3-5-----|
------8---------8---------7---------7---------5----3----2-----/ \--2-3-5-----------|
-5-**---**-5-**---**-3-**---**-3-**---**-1-**---**---**---**-1-3-5-----------------|
---00---00---00---00---55---55---55---55---33---33---33---33-----------------------|

1:00
B
--------------------------------------------------------------------|
--------------------------------------------------------------------|
-------------------------PH------PH---------------------------------|
------8----------8-------10------10--------PH-------------PH--------|
-5-**---**-5-**-----7-**----7-**----8--*-*-12--*-*-8--*-*-12--*-*---|
---00---00---00-------99------99------1010----1010---1010----1010---|

1:04
B
---------------------------------|
---------------------------------|
---------------------------------|
-----------------8-7-------------|
---------8-10-12-----10-7-8-10---|
-8-10-12-------------------------|

1:06
B
---------------------------------------------------------------------------_--PH---|
---------------------------------------------------------------------_----/ \--3---|
---------------------------------------------------------------_----/ \--2-3-5-----|
------8---------8---------7---------7---------5----3----2-----/ \--2-3-5-----------|
-5-**---**-5-**---**-3-**---**-3-**---**-1-**---**---**---**-1-3-5-----------------|
---00---00---00---00---55---55---55---55---33---33---33---33-----------------------|

1:11
B
-----------------------------------------------------------------------|
------------------_---------------------_------------------------------|
-----------------/ \-------------------/ \-----------------------------|
------8---------5-7-8------10---------7-8-10-----------------------PH--|
-5-**---**-5-**-------7-**----**-7-**--------8--*-*-12--*-*-10--*-*-8-*|
---00---00---00---------99----99---99----------1010----1010----1010---0|

1:16
L
---------------------------------------------------------------------------|
---------__------------------------------------__--------------------------|
-10-----/  \---10--------9999-10101010-10-----/  \---10----15----14---12---|
------10-12-14-------7777-------------------10-12-14-----------------------|
---***-----------***---------------------***-----------***----***---*----*-|
---000-----------000---------------------000-----------000----000---0----0-|
R
---------------------------------------------------------------------------|
---------_-----------------------------------_-----------------------------|
-7------/ \---7----------------------7------/ \---7------12-----10---9-----|
-------7-8-10-------------7777-8888--------7-8-10--------------------------|
---***----------***--5555--------------***-----------***----***----*----*--|
---000----------000--------------------000-----------000----000----0----0--|

1:21
L
-------------------------------------------------------------------------|
---------__------------------------------------__------------------------|
-10-----/  \---10--------9999-10101010-10-----/  \---10----15----14---12-|
------10-12-14-------7777-------------------10-12-14---------------------|
---***-----------***---------------------***-----------***----***---*----|
---000-----------000---------------------000-----------000----000---0----|
R
------------------------------------------------------------------------|
---------_-----------------------------------_--------------------------|
-7------/ \---7----------------------7------/ \---7------12-----10---9--|
-------7-8-10-------------7777-8888--------7-8-10-----------------------|
---***----------***--5555--------------***-----------***----***----*----|
---000----------000--------------------000-----------000----000----0----|

1:25
B
-------------------------------------------------------------------------|
-------------_---------------------------------------------_-----^-------|
------------/ \-----_-------------------_-----------------/ \---7-9--^---|
----12-----7-8-10--/ \-----------------/ \---------------7-8-10-----7-8--|
-**----***--------7-8-10-12-8-0-8-5-0-3-5-7-7-3-0-10-7-0-----------------|
-00----000---------------------------------------------------------------|

1:30
B
---------------------------------------------------------------|
---------------------------------------------------------------|
-10----9---12---10-------------------10101010-9999-7777-9999---|
---------------------------7777-8888---------------------------|
---**----*----*----***-5555------------------------------------|
---00----0----0----000-----------------------------------------|

1:33
L
---------------------------------------------------------------------------|
---------__------------------------------------__--------------------------|
-10-----/  \---10--------9999-10101010-10-----/  \---10----15----14---12---|
------10-12-14-------7777-------------------10-12-14-----------------------|
---***-----------***---------------------***-----------***----***---*----*-|
---000-----------000---------------------000-----------000----000---0----0-|
R
---------------------------------------------------------------------------|
---------_-----------------------------------_-----------------------------|
-7------/ \---7----------------------7------/ \---7------12-----10---9-----|
-------7-8-10-------------7777-8888--------7-8-10--------------------------|
---***----------***--5555--------------***-----------***----***----*----*--|
---000----------000--------------------000-----------000----000----0----0--|

1:38
L
-------------------------------------------------------------------------|
---------__------------------------------------__------------------------|
-10-----/  \---10--------9999-10101010-10-----/  \---10----15----14---12-|
------10-12-14-------7777-------------------10-12-14---------------------|
---***-----------***---------------------***-----------***----***---*----|
---000-----------000---------------------000-----------000----000---0----|
R
------------------------------------------------------------------------|
---------_-----------------------------------_--------------------------|
-7------/ \---7----------------------7------/ \---7------12-----10---9--|
-------7-8-10-------------7777-8888--------7-8-10-----------------------|
---***----------***--5555--------------***-----------***----***----*----|
---000----------000--------------------000-----------000----000----0----|

1:43
B
-------------------------------------------------------------------------|
-------------_---------------------------------------------_-----^-------|
------------/ \-----_-------------------_-----------------/ \---7-9--^---|
----12-----7-8-10--/ \-----------------/ \---------------7-8-10-----7-8--|
-**----***--------7-8-10-12-8-0-8-5-0-3-5-7-7-3-0-10-7-0-----------------|
-00----000---------------------------------------------------------------|

1:47
B
-------------------|
-----------PH------|
-10----9---12\-----|
-------------------|
---**----*---------|
---00----0---------|

1:48
L
------------------------------------------------------------------------------------------|
------------------------------------------------------------12\5----------13\8------------|
----------------------------------------------------------------2/10----------4/11--------|
-------------*-*-*-3-*-*---*-*-*-3-*-*-*-*-*-*-*-3-*-*-*-*----------9/15----------10/16---|
-------------4-3-1-1-2-1---4-3-1-1-2-1-0-1-4-3-1-1-2-1-0-1--------------------------------|
-------------4-3-1---2-1---4-3-1---2-1-0-1-4-3-1---2-1-0-1--------------4/-------------6/-|
R
-------------------------------------------------------------------------------------------|
-------------------------------------------------------------------------13\8--------------|
------------------------------------------------------------7\1-------------------7/13-----|
-*-*-*-3-*-*---------------*-*-*-3-*-*-*-*-*-*-*-3-*-*-*-*---------2/9-------6/13----------|
-4-3-1-1-2-1---------------4-3-1-1-2-1-0-1-4-3-1-1-2-1-0-1-----2/9-------------------------|
-4-3-1---2-1---------------4-3-1---2-1-0-1-4-3-1---2-1-0-1------------3/---------------6/--|

1:56
L
---------------------------------8\5-----------10\6----------12\7------------21\14------------|
------------------------------------------------------3/8-------------------------14/21-------|
----------------------------------------5/11-------3/9-----------4/11------------------14/17--|
-*-*-*-3-*-*-*-*-*-*-*-3-*-*-*-*----7/12------------------------------11/19-------------------|
-4-3-1-1-2-1-0-1-4-3-1-1-2-1-0-1--------------------------------------------------------------|
-4-3-1---2-1-0-1-4-3-1---2-1-0-1-------------4/------------8/---------------6/--------------8/|

R
-----------------------------------------------10\6----------15\10------------22\18-----------|
---------------------------------8\5------------------3/6--------------------------14/21H-----|
----------------------------------------5/10-------3/4------------7/11-8/11-------------19----|
-*-*-*-3-*-*-*-*-*-*-*-3-*-*-*-*-----3/5------------------------------------------------------|
-4-3-1-1-2-1-0-1-4-3-1-1-2-1-0-1--------------------------------------------------------------|
-4-3-1---2-1-0-1-4-3-1---2-1-0-1-------------4/------------8/----------------6/-------------8/|

2:02
L
--------------------------------12\6--------------19\10----------|
----------------8\3------------------5/11------------------------|
------------------------5/11--------------8/15----------13/19----|
-*-*-*-3-*-*-*------3/9------------------------------------------|
-4-3-1-1-3-2-1---------------------------------------------------|
-4-3-1---3-2-1---------------6/----------------8/----------------|
R
---------------------------------------------------------------|
---------------11\8--------------------------------14\9--------|
-----------------------3/7----------------7/11-----------------|
-*-*-*-3-*-*-*-----3/7----------15\9-7/11---------------7/11---|
-4-3-1-1-3-2-1-------------------------------------------------|
-4-3-1---3-2-1---------------6/----------------8/--------------|

2:06
B
-------------------------------------------------------------L-P------|
----------------------------------------------------------------S-----|
----------------------------------------------------------------------|
-*-*-*-3-*-*-*-*-*-*-*-3-*-*-*-*-*-*-*-3-*-*-*-*-*-*-*-3-*-*-R--P-----|
-4-3-1-1-2-1-0-1-4-3-1-1-2-1-0-1-4-3-1-1-2-1-0-1-4-3-1-1-2-1-----S----|
-4-3-1---2-1-0-1-4-3-1---2-1-0-1-4-3-1---2-1-0-1-4-3-1---2-1----------|

2:20
B SLOW
--------------------------------------------------------------------|
--------------------------------------------------------------------|
--------------------------------------------------------------------|
-*-*-*-3-*-*-*-*-*-*-*-3-*-*-*-*-*-*-*-3-*-*-*-*-*-*-*-3-*-*-*-*----|
-4-3-1-1-2-1-0-1-4-3-1-1-2-1-0-1-4-3-1-1-2-1-0-1-4-3-1-1-2-1-0-1----|
-4-3-1---2-1-0-1-4-3-1---2-1-0-1-4-3-1---2-1-0-1-4-3-1---2-1-0-1----|

2:28
B FAST
--------------------------------------------------------------------|
--------------------------------------------------------------------|
--------------------------------------------------------------------|
-*-*-*-3-*-*-*-*-*-*-*-3-*-*-*-*-*-*-*-3-*-*-*-*-*-*-*-3-*-*-*-*----|
-4-3-1-1-2-1-0-1-4-3-1-1-2-1-0-1-4-3-1-1-2-1-0-1-4-3-1-1-2-1-0-1----|
-4-3-1---2-1-0-1-4-3-1---2-1-0-1-4-3-1---2-1-0-1-4-3-1---2-1-0-1----|

2:36
B
--------------------------------------------------------------------|
--------------------------------------------------------------------|
--------------------------------------------------------------------|
-------3---------------3---------------3---------------3------------|
-4-3-1-1-2-1-0-1-4-3-1-1-2-1-0-1-4-3-1-1-2-1-0-1-4-3-1-1-2-1-0------|
-4-3-1---2-1-0-1-4-3-1---2-1-0-1-4-3-1---2-1-0-1-4-3-1---2-1-0------|

2:42
L                                                   __
--------------------------------------------__-----/  \----------------------------|
-------__----------------------------------/  \---8-10-11-8-10-11-15-13------------|
------/  \-----_--------------------__----9-10-12-----------------------14-10-12-14|
-----8-10-12--/ \------------------/  \--------------------------------------------|
-***---------7-8-10-7---*-*--*-*-10-12-13------------------------------------------|
-000--------------------0-0--0-0---------------------------------------------------|
R
-------------------------------------------------_-----------PH-------------------|
-------__---------------------------------_-----/ \----------11-------------------|
------/  \-----_-------------------_-----/ \---7-9-10-7-9-10----10-9----9-10------|
-----8-10-12--/ \-----------------/ \---7-8-10-----------------------12-----------|
-***---------7-8-10-4---*-*--*-*-7-8-10-------------------------------------------|
-000--------------------0-0--0-0--------------------------------------------------|

2:47
L
--------------------------------------------------------------------------|
-------------------__--------__----------------------__--------_----------|
-----------__-----/  \------/  \-----__-------__----/  \------/ \----_----|
----------/  \--12-14-15--14-12-10--/  \-----/  \--8-10-12--10-8-7- / \---|
-*-*-*--12-14-15------------------14-12-10--8-10-12---------------10-8-7--|
-0-0-0--------------------------------------------------------------------|
R
------------------------------------------------------------------|
-----------------__--------_-------------------_------_-----------|
----------__----/  \------/ \-----_------_----/ \----/ \----_-----|
---------/  \--8-10-12--10-8-7---/ \----/ \--5-7-8--7-5-3--/ \----|
-*-*-*--8-10-12----------------10-8-7--5-7-8--------------7-5-3---|
-0-0-0------------------------------------------------------------|

2:51
L
-----------------------------------------__-----------------------------------|
-------__-------------------------------/  \----8-10-11-13-11-10--------------|
------/  \-----_------------------__---9-10-12-------------------9-10-12------|
-----8-10-12--/ \----------------/  \-----------------------------------------|
-*-*---------7-8-10-7-*-*--*-*-10-12-13----------------------------------*-*-*|
-0-0------------------0-0--0-0-------------------------------------------0-0-0|
R
----------------------------------------------------PH------------------------|
-------__-------------------------------_-----------11------------------------|
------/  \-----_-----------------_-----/ \---7-9-10----10-9----7-9------------|
-----8-10-12--/ \---------------/ \---7-8-10----------------11----------------|
-*-*---------7-8-10-4-*-*--*-*-7-8-10------------------------------------*-*-*|
-0-0------------------0-0--0-0-------------------------------------------0-0-0|

2:56
B
---------------------------------------------------------------------------_--PH---|
---------------------------------------------------------------------_----/ \--3---|
---------------------------------------------------------------_----/ \--2-3-5-----|
------8---------8---------7---------7---------5----3----2-----/ \--2-3-5-----------|
-5-**---**-5-**---**-3-**---**-3-**---**-1-**---**---**---**-1-3-5-----------------|
---00---00---00---00---55---55---55---55---33---33---33---33-----------------------|

3:02
B
-----------------------------------------------------------------------------|
------------------_---------------------_------------------------------------|
-----------------/ \-------------------/ \-----------------------------------|
------8---------5-7-8------10---------7-8-10---------------------------------|
-5-**---**-5-**-------7-**----**-7-**--------8--*-*-12--*-*-10--*-*-8--*-*---|
---00---00---00---------99----99---99----------1010----1010----1010---1010---|

3:07
B
--------------------------------------------------------|
--------------------------------------------------------|
--------------------------------------------^-----------|
-----------------8-7-----------------------575---5------|
---------8-10-12-----10-7-8-10-------5-7-8-----8---8-7--|
-8-10-12-----------------------5-7-8--------------------|

3:10
B
---------------------------------------------------------------------------_--PH---|
---------------------------------------------------------------------_----/ \--3---|
---------------------------------------------------------------_----/ \--2-3-5-----|
------8---------8---------7---------7---------5----3----2-----/ \--2-3-5-----------|
-5-**---**-5-**---**-3-**---**-3-**---**-1-**---**---**---**-1-3-5-----------------|
---00---00---00---00---55---55---55---55---33---33---33---33-----------------------|

3:16
B
-----------------------------------------------------------------------------|
------------------_---------------------_------------------------------------|
-----------------/ \-------------------/ \-----------------------------------|
------8---------5-7-8------10---------7-8-10---------------------------------|
-5-**---**-5-**-------7-**----**-7-**--------8--*-*-12--*-*-10--*-*-8--*-*---|
---00---00---00---------99----99---99----------1010----1010----1010---1010---|

3:20
B
--------------------------------------------------------|
--------------------------------------------------------|
--------------------------------------------^-----------|
-----------------8-7-----------------------575---5------|
---------8-10-12-----10-7-8-10-------5-7-8-----8---8-7--|
-8-10-12-----------------------5-7-8--------------------|

3:21
B
---------------------------------------------------------------------------_--PH---|
---------------------------------------------------------------------_----/ \--3---|
------PH-------PH--------PH--------PH--------PH---PH---PH------_----/ \--2-3-5-----|
------8---------8---------7---------7---------5----3----2-----/ \--2-3-5-----------|
-5-**---**-5-**---**-3-**---**-3-**---**-1-**---**---**---**-1-3-5-----------------|
---00---00---00---00---55---55---55---55---33---33---33---33-----------------------|

3:26
B
--------------------------------------------------------------------|
--------------------------------------------------------------------|
-------------------------PH------PH---------------------------------|
------8----------8-------10------10--------PH-------------PH--------|
-5-**---**-5-**-----7-**----7-**----8--*-*-12--*-*-8--*-*-12--*-*---|
---00---00---00-------99------99------1010----1010---1010----1010---|

3:31
B
--------------------------------------------------------|
--------------------------------------------------------|
--------------------------------------------^-----------|
-----------------8-7-----------------------575---5------|
---------8-10-12-----10-7-8-10-------5-7-8-----8---8-7--|
-8-10-12-----------------------5-7-8--------------------|


3:34                                              __
R                                                /  \              
-----------------------------------------12-13-17-15-13-15-13-12-|
---------------------------------------15------------------------|
-----------9-10-12-10-9-10-9---------14--------------------------|
----^---10-------------------10-12-15----------------------------|
-5/8-12----------------------------------------------------------|
-----------------------------------------------------------------|

3:37
R  ^                  /\     ^               ^               
-15-12--------------121512-17-12-----------21-17---18-17-15--|
------13----------13-------------13--13/18------18-----------|
--------12------12-----------------12------------------------|
----------14--14---------------------------------------------|
------------15-----------------------------------------------|
-------------------------------------------------------------|

3:40
R  ^                                                                       ^
-17-13-------------13-15-17-15-12--------------12-13-15-13-10------------12-15/17-13----------|
------15---------15--------------13----------13--------------11---------13---------15---------|
-------14------14------------------12------12------------------10------12-----------14--------|
---------15--15----------------------14--14----------------------12---14-------------15-14-12-|
-----------17--------------------------15--------------------------1315-----------------------|
----------------------------------------------------------------------------------------------|

3:34
RYTHM
--------------------------------------------------------------------------------|
--------------------------------------------------------------------------------|
-------------------------------------------------------_-----------_------------|
----8-7-5-7-5---5/7---10-8-7-8-7---7---8-7----7-------/ \---------/ \----/\-----|
-5------------8-----------------10---------10---10-8-7-8-7-------7-8-10-8--7----|
-----------------------------------------------------------10-------------------|
3:40
-------------------------------------------------------|
-------------------------------------------------------|
-------------------------------------------------------|
----8-7-5-7-5---5----7-5---5-----------7-5-3-5-3-------|
-5------------8----------8---8-7-3--------------7-3/5--|
-------------------------------------------------------|
 
3:45
SWEEPS                 _____                                  ________
   ^                  /     \            ^                   /        \
-17-13--------------12-13-15-12---------9-12/13-10---------12/13-15-17-13---------------|
------15----------15----------13-------10--------11-------13-------------15-------------|
-------14-------14-------------12-----9-----------10-----12---------------14------------|
--------15-12-15----------------14---10------------12---14-----------------15-14-12-----|
---------17----------------------15-12--------------13-15-------------------------------|
----------------------------------------------------------------------------------------|

3:50   
                   ______               _____
   ^              /      \             /     \             ^
-17-13----------13-17\15-12----------12-15\13-10---------12-15/17-13---------------|
-----15--------15----------13-------13---------11-------13---------15--------------|
------14------14------------12-----12-----------10-----12-----------14-------------|
-------15-12-15--------------14---14-------------12---14-------------15-14-12------|
------------------------------15-15---------------13-15----------------------------|
-----------------------------------------------------------------------------------|

3:56 
                     ____
   ^                /    \            ^                   ^
-17-13------------1213-15-12---------9-12/13-10---------12-15/18-17-15---15-------------|
-----15----------15--------13------10---------11-------13-------------18---18-17-18-15--|
------14--------14----------12-----9-----------10-----12--------------------------------|
-------15------15------------14---10------------12---14---------------------------------|
--------17-14-17--------------15-12--------------13-15----------------------------------|
----------------------------------------------------------------------------------------|

3:45
RYTHM
----------------------------------------------------------------------------------------|
------------------------------------------------_---------------------------------------|
-------------------7-----10-9-7----------------/ \--------------_-----------------------|
------------7-8-10--------------10-8-7--------7-8-7----7-------/ \----------------------|
-8---7-8-10---------------------------10------------10---10-8-7-8-7-----7-8-10-7-8--5---|
--------------------------------------------------------------------10------------------|
3:51
---------------------------------------------------------------------|
-------------------------------------------------------------_-------|
--------------------------------------10-9-7-9-7----7-------/ \------|
-8-7----7----------10-8-7-8-7----7---------------10---10-8-7-8-7-----|
-----10---10-8-7--------------10---------------------------------8---|
---------------------------------------------------------------------|
3:56
--------------------------------------------------------------------------------------------|
--------------------------------------------------------------------------8-----------------|
----------5---------------------7-------------------------9-10-12-9-10-12---10-9-7-9-7---7--|
-----5-7-8-8-7-5-7-8------7-8-10-10-8-7-8-10-------8-10-12----------------------------10---8|
5-7-8---------------7-8-10------------------8-10-12-----------------------------------------|
--------------------------------------------------------------------------------------------|

4:05
CLEAN
-----0----1----0-----------5----3----5---------0----1----0-----------5-----3---|
----3-3----3----3------6----6----6----6-------3-3----3----3------6----6----6---|
---2---2----2----2----3------3----3----3-----2---2----2----2----3------3---3---|
--3-----3----3----3--0---0----0----0----0---3-----3----3----3--0---0----0--0---|
-1-----------------------------------------1-----------------------------------|
-------------------------------------------------------------------------------|

4:18

------0----------1---------0-----3----0----------0----------1---------0-----3-----|
---1---1------3---3-------1-1-----1----1------1---1------3---3-------1-1----1-----|
--2-2---2----2-2---2-----2---2-----2----2----2-2---2----2-2---2-----2---2---2-----|
-3-------3--0-------3---2-----2-----2----2--3-------3--0-------3---2-----2--2-----|
-----------------------0------------------------------------------0---------------|
----------------------------------------------------------------------------------|

4:31
-----------------1-1-1-1-1-1-1-----------------------------------|
-1-1-1-1-1-1-1-1-3-3-3-3-3-3-3-0-1-1-1-1-1-1-1-1-1-1-1-1-1-1-1-0-|
-2-2-2-2-2-2-2-2-2-2-2-2-2-2-2-0-2-2-2-2-2-2-2-2-2-2-2-2-2-2-2-0-|
-3-3-3-3-3-3-3-3---------------0-2-2-2-2-2-2-2-2-2-2-2-2-2-2-2-0-|
-----------------------------------------------------------------|
-----------------------------------------------------------------|

4:38
-----------------1-1-1-1-1-1-1-----------------------------------|
-1-1-1-1-1-1-1-1-3-3-3-3-3-3-3-0-1-1-1-1-1-1-1-1-3-3-3-3-3-3-3-0-|
-2-2-2-2-2-2-2-2-2-2-2-2-2-2-2-0-2-2-2-2-2-2-2-2-2-2-2-2-2-2-2-0-|
-3-3-3-3-3-3-3-3---------------0-2-2-2-2-2-2-2-2-2-2-2-2-2-2-2-0-|
-----------------------------------------------------------------|
-----------------------------------------------------------------|

4:45
-----------------1-1-1-1-1-1-1-----------------------------------|
-1-1-1-1-1-1-1-1-3-3-3-3-3-3-3-0-1-1-1-1-1-1-1-1-1-1-1-1-1-1-1-0-|
-2-2-2-2-2-2-2-2-2-2-2-2-2-2-2-0-2-2-2-2-2-2-2-2-2-2-2-2-2-2-2-0-|
-3-3-3-3-3-3-3-3---------------0-2-2-2-2-2-2-2-2-2-2-2-2-2-2-2-0-|
-----------------------------------------------------------------|
-----------------------------------------------------------------|

4:52
-----------------1-1-1-1-1-1-1--------------------------------------|
-1-1-1-1-1-1-1-1-3-3-3-3-3-3-3-0-1-1-1-1-1-1-1-1-1-1-1-1-1-1-1-1-1-1|
-2-2-2-2-2-2-2-2-2-2-2-2-2-2-2-0-2-2-2-2-2-2-2-2-2-2-2-2-2-2-2-2-2-2|
-3-3-3-3-3-3-3-3---------------0-2-2-2-2-2-2-2-2-2-2-2-2-2-2-2-2-2-2|
--------------------------------------------------------------------|
--------------------------------------------------------------------|

4:58
B
------------------------------------------------------------|
----------------^-------------------------------------------|
-***-5-**-4-**-4-5-5-----7----9----9--------------------P---|
-333-3-33-3-33-3-3-3-***-5-**-5-**-5\-***-10-9-7--------H---|
---------------------555---55---55----000--------10-8-7-7---|
------------------------------------------------------------|

5:03
-------------------------------------------------------|
--------------------------------^--------8-6-5---------|
-----5----7----9-***-5-**-4-**-4-5-5-***-------7-5-4---|
-***-3-**-5-**-7-333-3-33-3-33-3-3-3-555-------------5-|
-000---00---00-----------------------------------------|
-------------------------------------------------------|

5:07
L
---------------------------------------------------|
-------17----------19----------20-19-17-19-17--17--|
-----16--16------16--16------16--------------19----|
---17------17--17------17--17----------------------|
-19----------19----------19------------------------|
---------------------------------------------------|
R
---------------------------------------------PH---|
------10--------12---------13-12-10-12-10----10---|
-----9--9------9--9------9----------------12------|
---10----10--10----10--10-------------------------|
-12--------12--------12---------------------------|
--------------------------------------------------|

5:10
B
------------------------------------------------------------|
----------------^-------------------------------------------|
-***-5-**-4-**-4-5-5-----7----9----9--------------------P---|
-333-3-33-3-33-3-3-3-***-5-**-5-**-5\-***-10-9-7--------H---|
---------------------555---55---55----000--------10-8-7-7---|
------------------------------------------------------------|

5:15
-------------------------------------------------------|
--------------------------------^--------8-6-5---------|
-----5----7----9-***-5-**-4-**-4-5-5-***-------7-5-4---|
-***-3-**-5-**-7-333-3-33-3-33-3-3-3-555-------------5-|
-000---00---00-----------------------------------------|
-------------------------------------------------------|

5:20
L
---------------------------------------------------|
-------17----------19----------20-19-17-19-17--17--|
-----16--16------16--16------16--------------19----|
---17------17--17------17--17----------------------|
-19----------19----------19------------------------|
---------------------------------------------------|
R
---------------------------------------------PH---|
------10--------12---------13-12-10-12-10----10---|
-----9--9------9--9------9----------------12------|
---10----10--10----10--10-------------------------|
-12--------12--------12---------------------------|
--------------------------------------------------|

5:23
SWEEPS
   ^                         ^                  ^
-12-8-----------------------8-5---------------10-7-----------------12-10-8-10-8--8-------------|
-----10------------------------6------------------8----------------------------12-12-10-8-10-12|
-------9------9-10-12-10-9------5---5-7-9-7-5------7----7-9-10-9-7-----------------------------|
--------10--10-------------------7-7----------------9--9---------------------------------------|
----------12----------------------8------------------10----------------------------------------|
-----------------------------------------------------------------------------------------------|

 5:29
                  __                  __                    __
   ^             /  \    ^           /  \     ^            /  \
-12-8-----------8-12-8-13-10-------10-13-10-15-12--------12-15-12-17-15-13-15--13--------------|
-----10-------10-----------11-----11------------13-----13--------------------17--17-15-13-15-17|
-------9-----9--------------10---10--------------12---12---------------------------------------|
--------10-10----------------12-12----------------14-14----------------------------------------|
---------12-------------------13-------------------15------------------------------------------|
-----------------------------------------------------------------------------------------------|

5:35

   ^                         ^                  ^
-12-8-----------------------8-5---------------10-7-----------------12-10-8-10-8--8-------------|
-----10------------------------6------------------8----------------------------12-12-10-8-10-12|
-------9------9-10-12-10-9------5---5-7-9-7-5------7----7-9-10-9-7-----------------------------|
--------10--10-------------------7-7----------------9--9---------------------------------------|
----------12----------------------8------------------10----------------------------------------|
-----------------------------------------------------------------------------------------------|

 5:41 
                  __                  __                    __
   ^             /  \    ^           /  \     ^            /  \
-12-8-----------8-12-8-13-10-------10-13-10-15-12--------12-15-12-17-15-13-15--13--------------|
-----10-------10-----------11-----11------------13-----13--------------------17--17-15-13-15-17|
-------9-----9--------------10---10--------------12---12---------------------------------------|
--------10-10----------------12-12----------------14-14----------------------------------------|
---------12-------------------13-------------------15------------------------------------------|
-----------------------------------------------------------------------------------------------|

5:21
RYTHM
------------------------------------------------------------------------------------------------|
------------------------------------------------------------------------------------------------|
------------------------------------------------------------------------------------------------|
------------------------------------------------------------------------------------------------|
-------7-------------7------------3-----------3-----------5-----------5----8-7-5-7-5-5----------|
7-9-10---10-9-7-9-10---10-9-3-5-7---7-5-3-5-7---7-5-5-7-9---9-7-5-7-9---9-7---------9--9-7-9-7-5|

5:29
-------------------------------------------------------------------------------------------|
-------------------------------------------------------------------------------------------|
-------------------------------------------------------------------------------------------|
------------------------------------10-------------10--------------12--------------12------|
--------7-------------7------8-10-12--12-10-8-10-12--12-10-10-12-14--14-12-10-12-14--14-12-|
-7-9-10---10-9-7-9-10---10-9---------------------------------------------------------------|

5:33
-----------------------------------|
-----------------------------------|
-----------------------------------|
-14-12-10-12-10--10----------------|
---------------14--14-12-14-12-10--|
-----------------------------------|

5:35
------------------------------------------------------------------------------------------------|
------------------------------------------------------------------------------------------------|
------------------------------------------------------------------------------------------------|
------------------------------------------------------------------------------------------------|
-------7-------------7------------3-----------3-----------5-----------5----8-7-5-7-5-5----------|
7-9-10---10-9-7-9-10---10-9-3-5-7---7-5-3-5-7---7-5-5-7-9---9-7-5-7-9---9-7---------9--9-7-9-7-5|

5:41
-------------------------------------------------------------------------------------------|
-------------------------------------------------------------------------------------------|
-------------------------------------------------------------------------------------------|
------------------------------------10-------------10--------------12--------------12------|
--------7-------------7------8-10-12--12-10-8-10-12--12-10-10-12-14--14-12-10-12-14--14-12-|
-7-9-10---10-9-7-9-10---10-9---------------------------------------------------------------|

5:45
-----------------------------------|
-----------------------------------|
-----------------------------------|
-14-12-10-12-10--10----------------|
---------------14--14-12-14-12-10--|
-----------------------------------|

5:47
L
---------------------------------------------------------------|
---------------------------------------------------------------|
-----^-------^-------^-------^------9---7---5------------^-----|
-**-9-10-**-9-10-**-9-10-**-9-10-**---*---*---*-9-*-7-*-5-7-9--|
-88------88------88------88------55---5---5---5---5---5--------|
---------------------------------------------------------------|
R
---------------------------------------------------------------|
-----^------^------^------^------------------------------------|
----7-9----7-9----7-9----7-9----9---7---5------------^---------|
-**-----**-----**-----**-----**---*---*---*-9-*-7-*-5-7-9------|
-88-----88-----88-----88-----55---5---5---5---5---5------------|
---------------------------------------------------------------|

5:52
L
------------------------------------------------------------------------------------|
------------------------------------------------------------------------------------|
------5555-4444-2222---------------------------9999-7777-5555-----------------------|
--------------------5555-33-2222------------------------------9999-77-5555-77-9999--|
-0000----------------------------55-33-22-0000--------------------------------------|
------------------------------------------------------------------------------------|
R
------------------------------------------------------------------------------------|
------------------------------------------------------------------------------------|
------5555-4444-2222--------------------------5555-4444-2222------------------------|
--------------------5555-33-2222-----------------------------5555-33-2222-33-2222---|
-0000----------------------------55-33-22-0000--------------------------------------|
------------------------------------------------------------------------------------|

5:57
L
---------------------------------------------------------------|
---------------------------------------------------------------|
-----^-------^-------^-------^------9---7---5------------^-----|
-**-9-10-**-9-10-**-9-10-**-9-10-**---*---*---*-9-*-7-*-5-7-9--|
-88------88------88------88------55---5---5---5---5---5--------|
---------------------------------------------------------------|
R
---------------------------------------------------------------|
-----^------^------^------^------------------------------------|
----7-9----7-9----7-9----7-9--0-9---7---5------------^---------|
-**-----**-----**-----**-----**---*---*---*-9-*-7-*-5-7-9------|
-88-----88-----88-----88-----55---5---5---5---5---5------------|
---------------------------------------------------------------|

6:01
L
--------------------------------------------------------------------------------------|
--------------------------------------------------------------------------------------|
------5555-4444-2222---------------------------9999-7777-5555-10101010-99-7777-99-7777|
--------------------5555-33-2222------------------------------------------------------|
-0000----------------------------55-33-22-0000----------------------------------------|
--------------------------------------------------------------------------------------|
R
------------------------------------------------------------------------------------|
------------------------------------------------------------------------------------|
------5555-4444-2222--------------------------5555-4444-2222------------------------|
--------------------5555-33-2222-----------------------------5555-33-2222-----------|
-0000----------------------------55-33-22-0000----------------------------55-33-22--|
------------------------------------------------------------------------------------|

6:06
L
-----------------------------------------------------------------------------------------|
-----10101010-8888---------------------------------------8888-6666-5555----55------------|
------------------10101010-9999-1010-1212121212121212------------------7777--7777-55-4444|
-7777------------------------------------------------5555--------------------------------|
-----------------------------------------------------------------------------------------|
-----------------------------------------------------------------------------------------|
R
----------------------------------------------------------------------------------|
----------------------------------------------------------------------------------|
----10101010-9999-7777---------77-99999999------9999-7777-5555----55--------------|
----------------------10101010--------------------------------9999--9999-7777-5555|
8888---------------------------------------5555-----------------------------------|
----------------------------------------------------------------------------------|

6:10
L
---------------------------------------------------------------------|
---------------------------------------------------------------------|
---------------------------------------------------------------------|
---------------------------------------------------------------------|
-0000000000000000-----------------0000000000000000-------------------|
-----------------33333333-55555555-----------------33333333-55555555-|
R
------------------------------------------------------------------------------------|
------------------------------------------------------------------------------------|
------5555-4444-2222--------------------------5555-4444-2222------------------------|
--------------------5555-33-2222-----------------------------5555-33-2222-----------|
-0000----------------------------55-33-22-0000----------------------------55-33-22--|
------------------------------------------------------------------------------------|

6:15
L
-----------------------------------------------------------------------------------------|
-----10101010-8888---------------------------------------8888-6666-5555----55------------|
------------------10101010-9999-1010-1212121212121212------------------7777--7777-55-4444|
-7777------------------------------------------------5555--------------------------------|
-----------------------------------------------------------------------------------------|
-----------------------------------------------------------------------------------------|
R
----------------------------------------------------------------------------------|
----------------------------------------------------------------------------------|
----10101010-9999-7777---------77-99999999------9999-7777-5555----55--------------|
----------------------10101010--------------------------------9999--9999-7777-5555|
8888---------------------------------------5555-----------------------------------|
----------------------------------------------------------------------------------|

6:20
L
---------------------------------------------------------------------|
---------------------------------------------------------------------|
---------------------------------------------------------------------|
---------------------------------------------------------------------|
-0000000000000000-----------------0000000000000000-------------------|
-----------------33333333-55555555-----------------33333333-55555555-|
R
------------------------------------------------------------------------------------|
------------------------------------------------------------------------------------|
------5555-4444-2222--------------------------5555-4444-2222------------------------|
--------------------5555-33-2222-----------------------------5555-33-2222-33-2222---|
-0000----------------------------55-33-22-0000--------------------------------------|
------------------------------------------------------------------------------------|


6:25
---------------------------------------------------|
------8-----6------4------6-------8----------------|
------9-----7------5------7-------9--10-9-7--------|
-***-10-***-5--***-3--***-5--***-10---------10-9-7-|
-888----555----000----000----000-------------------|
---------------------------------------------------|

6:34
L
---------------------------------------------------|
------8-----6------4------6-------8----------------|
------9-----7------5------7-------9--10-9-7--------|
-***-10-***-5--***-3--***-5--***-10---------10-9-7-|
-888----555----000----000----000-------------------|
---------------------------------------------------|
R
-------------------------------------------------------|
------8-----6------4------6-------8--------------------|
------9-----7------5------7-------9--14-12-10----------|
-***-10-***-5--***-3--***-5--***-10-----------14-12-10-|
-888----555----000----000----000-----------------------|
-------------------------------------------------------|


6:45
L
-------------12------------12------------8-----7------8--------|
-------13----13------13----13-------10----10----10---10--------|
----14----14-14----14---14-14-----9----9----9-----9---9--------|
-15--------------12-------------7------------7-----7-----------|
---------------------------------------------------------------|
---------------------------------------------------------------|
R
-------------12------------15-------------8-------7-------8----|
-------13----13------13----13-------10----10-10---10-10---10---|
----14----14-14----14---14-14-----9----9--9----9--9---9---9----|
-15--------------12-------------7---------7-----7-7----7-------|
---------------------------------------------------------------|
---------------------------------------------------------------|

6:53
L
-------------12------------12------------8------10-----|
-------13----13------13----13-------10----10----10-----|
----14----14-14----14---14-14-----9----9----9---9------|
-15--------------12-------------7------------7---------|
-------------------------------------------------------|
-------------------------------------------------------|
R
-------------12------------15-------------8------7----|
-------13----13------13----13-------10-----10----10---|
----14----14-14----14---14-14-----9----9-----9---9----|
-15--------------12-------------7-------------7-------|
------------------------------------------------------|
------------------------------------------------------|

comments
We did not receive enough feedback on this tab! Please rate:
print report bad tab
1 2 3 4 5
I want to post or [tab]
guest
You may want to rate the tab now too:
select rating
Please do not post tabs as comments. Select "correction" instead!