Oops, an error
Loading. Please wait.

All I Need Bass Tab

ver1
ver1

Whole song

Interactive

More versions @911Tabs.com
59 views 1 this week
no commentswrite comment
1 2 3 4 5
please rate
Autoscroll
+/-
esc
set tempo
stop
Contributor
Difficulty
novice
Hey! There's an official Ultimate Guitar app which is ideal
for learning songs when you're away from computer. Get the app
WARNING: You are trying to view
                                    content from Ultimate-Guitar.com
                                    in an unauthorized application,
                                    which is prohibited.

                                    Please use an official Ultimate
                                    Guitar Tabs application for iPhone,
                                    iPad or Android to access legitimate
                                    chords, guitar, bass, and drum tabs
                                    from Ultimate-Guitar.com database.

                                    Type "ultimate guitar tabs" in Apple
                                    App Store's or Android Market's
                                    search to find the application.
Pre Chorus 0:37
G|-------------------------------------------------------------------------------------------------|
D|-------------------------------------------------------------------------------------------------|
A|-------------------------------------------------------------------------------------------------|
E|-------------------1-----3-----------3-----1-----------------------------1-----------1---------/-|
B|-4-----------4-----------------------------------4---------4-4-----4-4-4-------------------------|
   1 2 3 4 5 6 1 2 3 4 5 6 1 2 3 4 5 6 1 2 3 4 5 6 1 2 3 4 5 6 1 2 3 4 5 6 1 2 3 4 5 6 1 2 3 4 5 6

Chorus 0:56
G|-------------------------------------------------------------------------------------------------|
D|-------------------------------------------------------------------------------------------------|
A|-------------------------------------------------------------------------------------------------|
E|-6-----------6-----5-----3-----------3-----1-----------------------------1--1--1---1-1-----1-----|
B|-------------------------------------------------4-----------4-----------------------------------|
   1 2 3 4 5 6 1 2 3 4 5 6 1 2 3 4 5 6 1 2 3 4 5 6 1 2 3 4 5 6 1 2 3 4 5 6 1 2 3 4 5 6 1 2 3 4 5 6

G|-------------------------------------------------------------------------|
D|-------------------------------------------------------------------------|
A|-1-----------1-----0-----------------------------------------------------|
E|-------------------------3-----------3-----1-----------------------------|
B|-------------------------------------------------4-----------6-----6-\---|
   1 2 3 4 5 6 1 2 3 4 5 6 1 2 3 4 5 6 1 2 3 4 5 6 1 2 3 4 5 6 1 2 3 4 5 6 

Interlude 1:29
G|-------------------------------------------------------------------------------------------------|
D|-------------------------------------------------------------------------------------------------|
A|-------------------------------------------------------------------------------------------------|
E|-3-----3---3-3-------1h3-3-----3---3-3-------1h3-----------------------------------------------1h|
B|-------------------------------------------------4-----4---4-4-------4h6-1-1---1-1---1-1---1-1---|
   1 + 2 + 3 + 4 + 5 + 6 + 1 + 2 + 3 + 4 + 5 + 6 + 1 + 2 + 3 + 4 + 5 + 6 + 1 + 2 + 3 + 4 + 5 + 6 + 

Verse 1:38
G|-------------------------------------------------------------------------------------------------|
D|-------------------------------------------------------------------------------------------------|
A|-------------------------------------------------------------------------------------------------|
E|-3-----3---3-3---------1h3-----3---3-3---------------------------------1-1-----1---1-1---------1h|
B|-----------------------------------------------4-4-----4---4-4-----------------------------------|
   1 + 2 + 3 + 4 + 5 + 6 + 1 + 2 + 3 + 4 + 5 + 6 + 1 + 2 + 3 + 4 + 5 + 6 + 1 + 2 + 3 + 4 + 5 + 6 + 

G|-------------------------------------------------------------------------------------------------|
D|-------------------------------------------------------------------------------------------------|
A|-------------------------------------------------------------------------------------------------|
E|-3-----3---3-3---------1h3-----3---3-3---------------------------------1-1-----1---1-1-----------|
B|-----------------------------------------------4-4-----4---4-4-----------------------------------|
   1 + 2 + 3 + 4 + 5 + 6 + 1 + 2 + 3 + 4 + 5 + 6 + 1 + 2 + 3 + 4 + 5 + 6 + 1 + 2 + 3 + 4 + 5 + 6 + 

Pre Chorus 1:57
G|-------------------------------------------------------------------------------------------------|
D|-------------------------------------------------------------------------------------------------|
A|-------------------------------------------------------------------------------------------------|
E|-------------------1-----3-----3-----3--3--1---1-------------------------1--1--1-----1--1--1-----|
B|-4--4--4-----4--4--------------------------------4--4--4-----4--4--4-----------------------------|
   1 2 3 4 5 6 1 2 3 4 5 6 1 2 3 4 5 6 1 2 3 4 5 6 1 2 3 4 5 6 1 2 3 4 5 6 1 2 3 4 5 6 1 2 3 4 5 6

Chorus 2:16
G|-------------------------------------------------------------------------------------------------|
D|-------------------------------------------------------------------------------------------------|
A|-1-----------1-----0-----------------------------------------------------------------------------|
E|-------------------------3-----------3-----1-----------------------------1---------1-11--1-11--1-|
B|-------------------------------------------------4---------4-4-----4---4-------------------------|
   1 2 3 4 5 6 1 2 3 4 5 6 1 2 3 4 5 6 1 2 3 4 5 6 1 2 3 4 5 6 1 2 3 4 5 6 1 2 3 4 5 6 1 2 3 4 5 6

G|--------------------------------------------------------------------------------------|
D|--------------------------------------------------------------------------------------|
A|-1-----------1-----0------------------------------------------------------------------|
E|-------------------------3-----------3-----1-----------------1-----1-----3-33-3333333-|
B|-------------------------------------------------4------------------------------------|
   1 2 3 4 5 6 1 2 3 4 5 6 1 2 3 4 5 6 1 2 3 4 5 6 1 2 3 4 5 6 1 2 3 4 5 6 1 2 3 4 5 6 

Bridge 2:51
G|-------------------------------------------------------------------------------------------------|
D|-------------------------------------------------------------------------------------------------|
A|-------------------------------------------------------------------------------------------------|
E|-------------------------1-------1---1-------1---3-----3-3-3-3-------3---3-----------1-------1---|
B|-4-----4-4-4-4-------4---------------------------------------------------------------------------|
   1 + 2 + 3 + 4 + 5 + 6 + 1 + 2 + 3 + 4 + 5 + 6 + 1 + 2 + 3 + 4 + 5 + 6 + 1 + 2 + 3 + 4 + 5 + 6 + 

G|-------------------------------------------------------------------------------------------------|
D|-------------------------------------------------------------------------------------------------|
A|-------------------------------------------------------------------------------------------------|
E|-------------------------------------------------------------------------2-2---2-2---2-2-2-2-2-2-|
B|-4-----4---4-4-------4---1-----------1---1-1-1-1-3-3---3-3---3-3---3-3---------------------------|
   1 + 2 + 3 + 4 + 5 + 6 + 1 + 2 + 3 + 4 + 5 + 6 + 1 + 2 + 3 + 4 + 5 + 6 + 1 + 2 + 3 + 4 + 5 + 6 + 

3:10
G|-------------------------------------------------------------------------------------------------|
D|-------------------------------------------------------------------------------------------------|
A|-------------------------------------------------------------------------------------------------|
E|-------------------------1-----------1---1---1---3-----3-3-3-3-------3---------------------------|
B|-4-----------4-------4---------------------------------------------------3-----------3---3---3---|
   1 + 2 + 3 + 4 + 5 + 6 + 1 + 2 + 3 + 4 + 5 + 6 + 1 + 2 + 3 + 4 + 5 + 6 + 1 + 2 + 3 + 4 + 5 + 6 + 

G|-------------------------------------------------------------------------------------------------|
D|-------------------------------------------------------------------------------------------------|
A|-------------------------------------------------------------------------------------------------|
E|-------------------------------------------------------------------------2-2---2-2---2-2-2-2-2-2-|
B|-4-----------4-------4---1-----------1-----------3-3---3-3---3-3---3-3---------------------------|
   1 + 2 + 3 + 4 + 5 + 6 + 1 + 2 + 3 + 4 + 5 + 6 + 1 + 2 + 3 + 4 + 5 + 6 + 1 + 2 + 3 + 4 + 5 + 6 + 

G|-------------------------------------------------|
D|-------------------------------------------------|
A|-1-----------------------------------------------|
E|-------------------------------------------------|
B|-------------------------------------------------|
   1 2 3 4 5 6 1 2 3 4 5 6 1 2 3 4 5 6 1 2 3 4 5 6

Rest

Chorus 3:43
G|-------------------------------------------------------------------------------------------------|
D|-------------------------------------------------------------------------------------------------|
A|-1-----1---1-1-----------1-----1---1-0-------0---------------------------------------------------|
E|-------------------------------------------------3-----3-----3-------------------3---1-----------|
B|-------------------------------------------------------------------------------------------------|
   1 + 2 + 3 + 4 + 5 + 6 + 1 + 2 + 3 + 4 + 5 + 6 + 1 + 2 + 3 + 4 + 5 + 6 + 1 + 2 + 3 + 4 + 5 + 6 + 

G|-------------------------------------------------------------------------------------------------|
D|-------------------------------------------------------------------------------------------------|
A|-------------------------------------------------------------------------------------------------|
E|-------------------------------------------------------------------------------------------------|
B|-4-----------------------4-----------------------1-3---3-3---1-3---3-3---1-3---3-3---1---1---1---|
   1 + 2 + 3 + 4 + 5 + 6 + 1 + 2 + 3 + 4 + 5 + 6 + 1 + 2 + 3 + 4 + 5 + 6 + 1 + 2 + 3 + 4 + 5 + 6 + 

4:01
G|-------------------------------------------------------------------------------------------------|
D|-------------------------------------------------------------------------------------------------|
A|-1-----1---1-1-----------1-----1---1-0-------0---------------------------------------------------|
E|-------------------------------------------------3-----3---3-3-----------3-----3---3-1---1---1---|
B|-------------------------------------------------------------------------------------------------|
   1 + 2 + 3 + 4 + 5 + 6 + 1 + 2 + 3 + 4 + 5 + 6 + 1 + 2 + 3 + 4 + 5 + 6 + 1 + 2 + 3 + 4 + 5 + 6 + 

G|-------------------------------------------------------------------------------------------------|
D|-------------------------------------------------------------------------------------------------|
A|-------------------------------------------------------------------------------------------------|
E|-------------------------------------------------1-----1---1-1---1-1-1-1-1-1---1-1---1-----------|
B|-4-----4---4-4-------4---4-----4---4-4-------4---------------------------------------------------|
   1 + 2 + 3 + 4 + 5 + 6 + 1 + 2 + 3 + 4 + 5 + 6 + 1 + 2 + 3 + 4 + 5 + 6 + 1 + 2 + 3 + 4 + 5 + 6 + 

4:20
G|-------------------------------------------------------------------------------------------------|
D|-------------------------------------------------------------------------------------------------|
A|-1-----1---1-1-----------1-----1---1-0-------0-0-------------------------------------------------|
E|-------------------------------------------------3-----3---3-3-----------3-----3---3-1-------1---|
B|-------------------------------------------------------------------------------------------------|
   1 + 2 + 3 + 4 + 5 + 6 + 1 + 2 + 3 + 4 + 5 + 6 + 1 + 2 + 3 + 4 + 5 + 6 + 1 + 2 + 3 + 4 + 5 + 6 + 

G|-------------------------------------------------------------------------------------------------|
D|-------------------------------------3-----------------------------------------------------------|
A|-------------------------------------------------------------------------------------------------|
E|-------------------------1-------1---------------------------------------1-1---1-1---1-----------|
B|-4-----------4-----------------------------------4-------4---4-------4---------------------------|
   1 + 2 + 3 + 4 + 5 + 6 + 1 + 2 + 3 + 4 + 5 + 6 + 1 + 2 + 3 + 4 + 5 + 6 + 1 + 2 + 3 + 4 + 5 + 6 + 

G|-------------------------------------------------|
D|-------------------------------------------------|
A|-1-----------------------------------------------|
E|-------------------------------------------------|
B|-------------------------------------------------|
   1 2 3 4 5 6 1 2 3 4 5 6 1 2 3 4 5 6 1 2 3 4 5 6

Tabbed by Dave Vucko
comments
We did not receive enough feedback on this tab! Please rate:
print report bad tab
1 2 3 4 5
I want to post or [tab]
guest
You may want to rate the tab now too:
select rating
Please do not post tabs as comments. Select "correction" instead!