Oops, an error
Loading. Please wait.

Forgiven Tab

ver1
ver1

Intro

Whole song

Interactive

More versions @911Tabs.com
2,279 views 6 this week
no commentswrite comment
1 2 3 4 5
excellent!
x 1
Autoscroll
+/-
esc
set tempo
stop
Contributor
Difficulty
intermediate
Hey! There's an official Ultimate Guitar app which is ideal
for learning songs when you're away from computer. Get the app
WARNING: You are trying to view
                                    content from Ultimate-Guitar.com
                                    in an unauthorized application,
                                    which is prohibited.

                                    Please use an official Ultimate
                                    Guitar Tabs application for iPhone,
                                    iPad or Android to access legitimate
                                    chords, guitar, bass, and drum tabs
                                    from Ultimate-Guitar.com database.

                                    Type "ultimate guitar tabs" in Apple
                                    App Store's or Android Market's
                                    search to find the application.
.........................................................
............---Forgiven - Within Temptation---...........
.........................At album........................
.................---Heart of Everything---...............

Okay, this is my first tab, so it's not perfect.

[***]Note:
I have done little modifications, in example, in this part:

E|-11------10------8-------11----|-10------8------6-------6-----|
B|-----8-------8-------8-------8-|-----8------8-------8-------8-|
G|-------------------------------|------------------------------|
D|-------------------------------|------------------------------|
A|-------------------------------|------------------------------|
E|-------------------------------|------------------------------|

In original, this is played like this:

E|-11---3---10--3---8---3---11--3-|-10--3---8--3---6---3---6--3--|
B|--------------------------------|------------------------------|
G|--------------------------------|------------------------------|
D|--------------------------------|------------------------------|
A|--------------------------------|------------------------------|
E|--------------------------------|------------------------------|

But it's very difficult to because you have to go: up, down, up, down, as so on.
[***]

E|-18---17---13--10--|-10---10--10---8---8---|-8---10----10--|-10-----|
B|-------------------|-----------------------|---------------|--------|
G|-------------------|-----------------------|---------------|--------|
D|-------------------|-----------------------|---------------|--------|
A|-------------------|-----------------------|---------------|--------|
E|-------------------|-----------------------|---------------|--------|

E|-6----5----1-------|-----------------------|---------------|--------|
B|---------------3---|-3----3---3----1---1---|-1---3-----3---|-3------|
G|-------------------|-----------------------|---------------|--------|
D|-------------------|-----------------------|---------------|--------|
A|-------------------|-----------------------|---------------|--------|
E|-------------------|-----------------------|---------------|--------|

E|-----------3----|-----------3----|
B|------6---------|------6---------|
G|----------------|----------------|
D|----------------|----------------|
A|----------------|----------------|
E|----------------|----------------|

E|-6----5----6----|-6----5----6----|-3---------3----|-3---------3----|-6----5----6----|
B|----------------|----------------|------6---------|------6---------|----------------|
G|----------------|----------------|----------------|----------------|----------------|
D|----------------|----------------|----------------|----------------|----------------|
A|----------------|----------------|----------------|----------------|----------------|
E|----------------|----------------|----------------|----------------|----------------|


E|-5----5---------|-3---------3----|-3---------3----|-6----6----6----|-5--------5--------3---|
B|-----------6----|------6---------|------6---------|----------------|------6--------6-------|
G|----------------|----------------|----------------|----------------|-----------------------|
D|----------------|----------------|----------------|----------------|-----------------------|
A|----------------|----------------|----------------|----------------|-----------------------|
E|----------------|----------------|----------------|----------------|-----------------------|

E|-3---------3----|-3---------3----|-5----3---5----5----|-5--------5---8----5----|
B|------6---------|------6---------|--------------------|------6-----------------|
G|----------------|----------------|--------------------|------------------------|
D|----------------|----------------|--------------------|------------------------|
A|----------------|----------------|--------------------|------------------------|
E|----------------|----------------|--------------------|------------------------|

E|-11------10------8-------11----|-10------8------6-------6---8---|-10------8-------6-------10----|
B|-----8-------8-------8-------8-|-----8------8-------8-----------|-----8-------8-------8-------8-|
G|-------------------------------|--------------------------------|-------------------------------|
D|-------------------------------|--------------------------------|-------------------------------|
A|-------------------------------|--------------------------------|-------------------------------|
E|-------------------------------|--------------------------------|-------------------------------|

E|-8------6--3---5-------5---8---|-11------10------8-------11-----|-10------8-------6-------6---8-|
B|----8--------------6-----------|-----8-------8-------8-------8--|-----8-------8-------8---------|
G|-------------------------------|--------------------------------|-------------------------------|
D|-------------------------------|--------------------------------|-------------------------------|
A|-------------------------------|--------------------------------|-------------------------------|
E|-------------------------------|--------------------------------|-------------------------------|

E|-10-----8-------6-------10-----|-8-------6---3---5-------5---8--|-11------10------8-------10----|
B|-----8------8-------8-------8--|-----8---------------6----------|-----8-------8-------8-------8-|
G|-------------------------------|--------------------------------|-------------------------------|
D|-------------------------------|--------------------------------|-------------------------------|
A|-------------------------------|--------------------------------|-------------------------------|
E|-------------------------------|--------------------------------|-------------------------------|

E|-11-----10------8-------10-----|-10------8---10------8---10-----|-10------8---10------8---10----|
B|-----8------8-------8-------8--|-----8-----------8-----------8--|-----8-----------8-----------8-|
G|-------------------------------|--------------------------------|-------------------------------|
D|-------------------------------|--------------------------------|-------------------------------|
A|-------------------------------|--------------------------------|-------------------------------|
E|-------------------------------|--------------------------------|-------------------------------|


E|-----10-----10--8---6---5---|-5----10------10--8---5---6---|-6-----------|------10---5----10----|
B|-8-------8------------------|----------8-------------------|----------1--|--------------------8-|
G|----------------------------|------------------------------|------3------|-2--------------------|
D|----------------------------|------------------------------|-------------|----------------------|
A|----------------------------|------------------------------|-------------|----------------------|
E|----------------------------|------------------------------|-------------|----------------------|


E|-----10-----10--8---6---5---|-5---10------10--8---5---6---|-6-----------|-----10---8---6---5--3-|
B|-8-------8------------------|---------8-------------------|----------1--|-----------------------|
G|----------------------------|-----------------------------|------3------|-2---------------------|
D|----------------------------|-----------------------------|-------------|-----------------------|
A|----------------------------|-----------------------------|-------------|-----------------------|
E|----------------------------|-----------------------------|-------------|-----------------------|


E|-27--15--22--27--15--22--27--15--|-27--15--22--27--15--22--27--15--|-27--------3----|
B|---------------------------------|---------------------------------|------6---------|
G|---------------------------------|---------------------------------|----------------|
D|---------------------------------|---------------------------------|----------------|
A|---------------------------------|---------------------------------|----------------|
E|---------------------------------|---------------------------------|----------------|


E|-----------3----|-6----5----6----|-6----5----6----|-3---------3----|-3---------3----|
B|------6---------|----------------|----------------|------6---------|------6---------|
G|----------------|----------------|----------------|----------------|----------------|
D|----------------|----------------|----------------|----------------|----------------|
A|----------------|----------------|----------------|----------------|----------------|
E|----------------|----------------|----------------|----------------|----------------|


E|-6----5----6----|-5----5---------|-3---------3----|-3---------3----|-6----6----6----|
B|----------------|-----------6----|------6---------|------6---------|----------------|
G|----------------|----------------|----------------|----------------|----------------|
D|----------------|----------------|----------------|----------------|----------------|
A|----------------|----------------|----------------|----------------|----------------|
E|----------------|----------------|----------------|----------------|----------------|


E|-5-------5-------3---|-3---------3---|-3---------3----|-5----3---5----5---|-5--------5---8----5--|
B|-----6-------6-------|------6--------|------6---------|-------------------|------6---------------|
G|---------------------|---------------|----------------|-------------------|----------------------|
D|---------------------|---------------|----------------|-------------------|----------------------|
A|---------------------|---------------|----------------|-------------------|----------------------|
E|---------------------|---------------|----------------|-------------------|----------------------|

E|-11------10------8-------11-----|-10------8-------6-------6---8--|-10------8-------6-------10----|
B|-----8-------8-------8-------8--|-----8-------8-------8----------|-----8-------8-------8-------8-|
G|--------------------------------|--------------------------------|-------------------------------|
D|--------------------------------|--------------------------------|-------------------------------|
A|--------------------------------|--------------------------------|-------------------------------|
E|--------------------------------|--------------------------------|-------------------------------|

E|-8-------6---3---5-------5---8--|-11------10------8------11------|-10-----8-------6-------6---8--|
B|-----8---------------6----------|-----8-------8------8--------8--|----8-------8------8-----------|
G|--------------------------------|--------------------------------|-------------------------------|
D|--------------------------------|--------------------------------|-------------------------------|
A|--------------------------------|--------------------------------|-------------------------------|
E|--------------------------------|--------------------------------|-------------------------------|

E|-10------8-------6-------10-----|-8-------6---3---5-------5---8--|-11------10------8-------10----|
B|-----8-------8-------8-------8--|-----8---------------6----------|-----8-------8-------8-------8-|
G|--------------------------------|--------------------------------|-------------------------------|
D|--------------------------------|--------------------------------|-------------------------------|
A|--------------------------------|--------------------------------|-------------------------------|
E|--------------------------------|--------------------------------|-------------------------------|

E|-11------10------8-------10-----|-10------8---10------8---10-----|-10------8---10------8---10----|
B|-----8-------8-------8-------8--|-----8-----------8-----------8--|-----8-----------8-----------8-|
G|--------------------------------|--------------------------------|-------------------------------|
D|--------------------------------|--------------------------------|-------------------------------|
A|--------------------------------|--------------------------------|-------------------------------|
E|--------------------------------|--------------------------------|-------------------------------|

E|-----10------10--8---6---5--|-5----10------10--8---5---6---|-6------------|------10---5----10----|
B|-8-------8------------------|----------8-------------------|----------1---|--------------------8-|
G|----------------------------|------------------------------|------3-------|-2--------------------|
D|----------------------------|------------------------------|--------------|----------------------|
A|----------------------------|------------------------------|--------------|----------------------|
E|----------------------------|------------------------------|--------------|----------------------|

E|-----10------10--8---6---5--|-5----10------10--8---5---6---|-6------------|----10---8---6---5--3-|
B|-8--------8-----------------|----------8-------------------|----------1---|----------------------|
G|----------------------------|------------------------------|------3-------|-2--------------------|
D|----------------------------|------------------------------|--------------|----------------------|
A|----------------------------|------------------------------|--------------|----------------------|
E|----------------------------|------------------------------|--------------|----------------------|

E|---------3---5---6---3---5---3---|-8----8---10---10--6---6---|-8----8---6----6---10--10--|
B|-3---6---------------------------|-8----8---8----8---8---8---|-6----6---6----6---8---6---|
G|---------------------------------|-7----7---7----7---7---7---|-5----5---5----5---7---7---|
D|---------------------------------|---------------------------|---------------------------|
A|---------------------------------|---------------------------|---------------------------|
E|---------------------------------|---------------------------|---------------------------|

E|-8----8---8----8---6---6---|-5----5---5----5-----------|-11---11--8----8---6---6---|
B|-6----6---6----6---6---6---|-6----6---6----6---6---6---|-11---8---8----8---6---6---|
G|-5----5---5----5---3---3---|-5----5---5----5---5---5---|-8----8---7----7---5---5---|
D|---------------------------|-------------------3---3---|---------------------------|
A|---------------------------|---------------------------|---------------------------|
E|---------------------------|---------------------------|---------------------------|


E|-11---11--8----8---6---6---|-10---10--10---10--10--10--|-10---10--10---10--10--10--|
B|-11---8---8----8---6---6---|-8----8---8----8---8---8---|-8----8---8----8---8---8---|
G|-8----8---7----7---5---5---|-7----7---7----7---7---7---|-7----7---7----7---7---7---|
D|---------------------------|---------------------------|---------------------------|
A|---------------------------|---------------------------|---------------------------|
E|---------------------------|---------------------------|---------------------------|


E|-8----8---10---10--6---6---|-8----8---6----6---10--10--|-8----8---8----8---6---6---|
B|-8----8---8----8---8---8---|-6----6---6----6---8---6---|-6----6---6----6---6---6---|
G|-7----7---7----7---7---7---|-5----5---5----5---7---7---|-5----5---5----5---3---3---|
D|---------------------------|---------------------------|---------------------------|
A|---------------------------|---------------------------|---------------------------|
E|---------------------------|---------------------------|---------------------------|


E|-5----5---5----5---11--10--|-11---11--8----8---6---6---|-11---11--8----8---6---6---|
B|-6----6---6----6-----------|-11---8---8----8---6---6---|-11---8---8----8---6---6---|
G|-5----5---5----5-----------|-8----8---7----7---5---5---|-8----8---7----7---5---5---|
D|---------------------------|---------------------------|---------------------------|
A|---------------------------|---------------------------|---------------------------|
E|---------------------------|---------------------------|---------------------------|


E|-10-----|-10-----|-10---10------10--8---6---5---|-5----10------10--8---5---6---|
B|-8------|-8------|----------8-------------------|----------8-------------------|
G|-7------|-7------|------------------------------|------------------------------|
D|--------|--------|------------------------------|------------------------------|
A|--------|--------|------------------------------|------------------------------|
E|--------|--------|------------------------------|------------------------------|


E|-6-----------|------10---5----10------|------10------10--8---6---5--|-5----10------10--8---5---6-|
B|---------1---|--------------------8---|-8--------8------------------|----------8-----------------|
G|-----3-------|-2----------------------|-----------------------------|----------------------------|
D|-------------|------------------------|-----------------------------|----------------------------|
A|-------------|------------------------|-----------------------------|----------------------------|
E|-------------|------------------------|-----------------------------|----------------------------|


E|-6-------------|------10---8---6---5-------|--------|-------15--17--|-18---17---13--10--|
B|-----------1---|-----------------------8---|-8------|-8-------------|-------------------|
G|-------3-------|-2-------------------------|--------|---------------|-------------------|
D|---------------|---------------------------|--------|---------------|-------------------|
A|---------------|---------------------------|--------|---------------|-------------------|
E|---------------|---------------------------|--------|---------------|-------------------|


E|-10---10--10---8---8---|-8---10----10--|-10-----|-18---17---13--10--|-10---10--10---8---8---|
B|-----------------------|---------------|--------|-------------------|-----------------------|
G|-----------------------|---------------|--------|-------------------|-----------------------|
D|-----------------------|---------------|--------|-------------------|-----------------------|
A|-----------------------|---------------|--------|-------------------|-----------------------|
E|-----------------------|---------------|--------|-------------------|-----------------------|


E|-8---10----10--|-27-----|-27-----|
B|---------------|--------|--------|
G|---------------|--------|--------|
D|---------------|--------|--------|
A|---------------|--------|--------|
E|---------------|--------|--------|


Tabbed by: DeadPhoenix
comments
We did not receive enough feedback on this tab! Please rate:
print report bad tab
1 2 3 4 5
I want to post or [tab]
guest
You may want to rate the tab now too:
select rating
Please do not post tabs as comments. Select "correction" instead!