Oops, an error
Loading. Please wait.

Forsaken Tab

ver1
ver1

Whole song

Interactive

More versions @911Tabs.com
470 views 3 this week
no commentswrite comment
1 2 3 4 5
accurate
x 1
Autoscroll
+/-
esc
set tempo
stop
Contributor
Difficulty
Tuning
novice
A E A D F# B
Hey! There's an official Ultimate Guitar app which is ideal
for learning songs when you're away from computer. Get the app
WARNING: You are trying to view
                                    content from Ultimate-Guitar.com
                                    in an unauthorized application,
                                    which is prohibited.

                                    Please use an official Ultimate
                                    Guitar Tabs application for iPhone,
                                    iPad or Android to access legitimate
                                    chords, guitar, bass, and drum tabs
                                    from Ultimate-Guitar.com database.

                                    Type "ultimate guitar tabs" in Apple
                                    App Store's or Android Market's
                                    search to find the application.
Within Temptation "Forsaken" Guitar tab tabbed by thecoverguitarist

Drop-A-E-A-D-F#-B tuning

intro
B---------------------------------------------------------------------------------------|
F#--------------------------------------------------------------------------------------|
D-------------10------------7-------------10------------12-------------10------------7--|
A-------------x-------------x-------------x-------------x--------------x-------------x--|
E-------------8-------------5-------------8-------------10-------------8-------------5--|
A--0---0--0-0----0---0--0-0----0---0--0-0----0---0--0-0-----0---0--0-0----0---0--0-0----|
PM .   .  . .    .   .  . .    .   .  . .    .   .  . .     .   .  . .    .   .  . .

B-------------------------------------------|
F#------------------------------------------|
D-------------------------------------------|
A-------------------------------------------|
E--8--8--8-8-8--8--8--8-8-8--8-8-10--10-10--|
A--8--8--8-8-8--8--8--8-8-8--8-8-10--10-10--|
PM .  .  . . .  .  .  . . .  . . ..  .. ..

B---------------------------------------------------------------------------------------|
F#--------------------------------------------------------------------------------------|
D-------------10------------7-------------10------------12-------------10------------7--|
A-------------x-------------x-------------x-------------x--------------x-------------x--|
E-------------8-------------5-------------8-------------10-------------8-------------5--|
A--0---0--0-0----0---0--0-0----0---0--0-0----0---0--0-0-----0---0--0-0----0---0--0-0----|
PM .   .  . .    .   .  . .    .   .  . .    .   .  . .     .   .  . .    .   .  . .

B---------------------------------------------|
F#--------------------------------------------|
D---------------------------------------------|
A---------------------------------------------|
E--8--8--8-8-8--8--8--8-8-5--5--5-5-/-7/////--|
A--8--8--8-8-8--8--8--8-8-5--5--5-5-/-7/////--|
PM .  .  . . .  .  .  . . .  .  . .   .
___________________________________________________________________________________________
pauze
___________________________________________________________________________________________

verse 1
B------------------------------------------------------------------------------------------|
F#-----------------------------------------------------------------------------------------|
D------------------------------------------------------------------------------------------|
A------------------------------------------------------------------------------------------|
E------------------------------------------------------------------------------------------|
A--0--0--0-0-0----0--0--0-0-0----0--0--0-0-0----0--0--0-0-0----8--8--8-8-8----8--8--8-8-8--|
PM .  .  . . .    .  .  . . .    .  .  . . .    .  .  . . .    .  .  . . .    .  .  . . .

B------------------------------------------------------------------------------------------|
F#-----------------------------------------------------------------------------------------|
D------------------------------------------------------------------------------------------|
A------------------------------------------------------------------------------------------|
E------------------------------------------------------------------------------------------|
A--3--3--3-3-3----3--3--3-3-3----5--5--5-5-5----5--5--5-5-5----0--0--0-0-0----0--0--0-0-0--|
PM .  .  . . .    .  .  . . .    .  .  . . .    .  .  . . .    .  .  . . .    .  .  . . .

B----------------------------------------------------------------------------|
F#---------------------------------------------------------------------------|
D----------------------------------------------------------------------------|
A----------------------------------------------------------------------------|
E----------------------------------------------------------------------------|
A--10-10--10-10-10----10-10--10-10-10----10-10--10-10-10----10-10--10-10-10--|
PM .. ..  .. .. ..    .. ..  .. .. ..    .. ..  .. .. ..    .. ..  .. .. ..
_________________________________________________________________________________________________
Bridge
B------------------------------------------------------------------------------------------------|
F#-----------------------------------------------------------------------------------------------|
D------------------------------------------------------------------------------------------------|
A------------------------------------------------------------------------------------------------|
E--8-8-8-8----5-5-5-5----------------------------------------------------------------------------|
A--8-8-8-8----5-5-5-5----0--0--0-0-0----0--0---0-0-0----0--0--0-0-0----7--7--7-7-7----7--7--7-7-7|
PM . . . .    . . . .    .  .  . . .    .  .   . . .    .  .  . . .    .  .  . . .    .  .  . . .

B---------------------------------------------------|
F#--------------------------------------------------|
D---------------------------------------------------|
A---------------------------------------------------|
E--8-8-8-8----5-5-5-5----7--7---7--7---7--7---7--7--|
A--8-8-8-8----5-5-5-5----7--7---7--7---7--7---7--7--|
PM . . . .    . . . .    .  .   .  .   .  .   .  .
________________________________________________________________________________________________
Chorus
B-----------------------------------------------------------|
F#----------------------------------------------------------|
D--------------10------------9-------------10------------9--|
A--------------x-------------x-------------x-------------x--|
E--------------8-------------7-------------8-------------7--|
A--0-0-0-0-0-0---0-0-0-0-0-0---0-0-0-0-0-0---0-0-0-0-0-0----|
PM . . . . . .   . . . . . .   . . . . . .   . . . . . .

B-----------------------------------------------------------------------------|
F#----------------------------------------------------------------------------|
D-----------------------------------------------------------------------------|
A-----------------------------------------------------------------------------|
E-----------------------------------------------------------------------------|
A--10--10--10-10-10---10--10--10-10-10---10--10--10-10-10---10--10--10-10-10--|
PM ..  ..  .. .. ..   ..  ..  .. .. ..   ..  ..  .. .. ..   ..  ..  .. .. ..

B-----------------------------------------------------------------------|
F#----------------------------------------------------------------------|
D-----------------------------------------------------------------------|
A-----------------------------------------------------------------------|
E-----------------------------------------------------------------------|
A--8--8--8-8-8----8--8--8-8-8---5--5--5-5-5--7--7--7-7-7---7--7--7-7-7--|
PM .  .  . . .    .  .  . . .   .  .  . . .  .  .  . . .   .  .  . . .

B-----------------------------------------------------------|
F#----------------------------------------------------------|
D--------------10------------9-------------10------------9--|
A--------------x-------------x-------------x-------------x--|
E--------------8-------------7-------------8-------------7--|
A--0-0-0-0-0-0---0-0-0-0-0-0---0-0-0-0-0-0---0-0-0-0-0-0----|
PM . . . . . .   . . . . . .   . . . . . .   . . . . . .

B-----------------------------------------------------------------------------|
F#----------------------------------------------------------------------------|
D-----------------------------------------------------------------------------|
A-----------------------------------------------------------------------------|
E-----------------------------------------------------------------------------|
A--10--10--10-10-10---10--10--10-10-10---10--10--10-10-10---10--10--10-10-10--|
PM ..  ..  .. .. ..   ..  ..  .. .. ..   ..  ..  .. .. ..   ..  ..  .. .. ..

B------------------------------------------------------------------------------|
F#-----------------------------------------------------------------------------|
D------------------------------------------------------------------------------|
A------------------------------------------------------------------------0~~~~-|
E------------------------------------------------------------------------0~~~~-|
A--8--8--8-8-8---8--8--8-8-8---5--5--5-5-5--7--7--7-7-7---7--7--7-7-7----0~~~~-|
PM .  .  . . .   .  .  . . .   .  .  . . .  .  .  . . .   .  .  . . .
________________________________________________________________________________________________
Verse 2
B------------------------------------------------------------------------------------------|
F#-----------------------------------------------------------------------------------------|
D------------------------------------------------------------------------------------------|
A------------------------------------------------------------------------------------------|
E------------------------------------------------------------------------------------------|
A--0--0--0-0-0----0--0--0-0-0----7--7--7-7-7----7--7--7-7-7----8--8--8-8-8----8--8--8-8-8--|
PM .  .  . . .    .  .  . . .    .  .  . . .    .  .  . . .    .  .  . . .    .  .  . . .

B------------------------------------------------------------------------------------------|
F#-----------------------------------------------------------------------------------------|
D------------------------------------------------------------------------------------------|
A------------------------------------------------------------------------------------------|
E------------------------------------------------------------------------------------------|
A--3--3--3-3-3----3--3--3-3-3----5--5--5-5-5----5--5--5-5-5----0--0--0-0-0----0--0--0-0-0--|
PM .  .  . . .    .  .  . . .    .  .  . . .    .  .  . . .    .  .  . . .    .  .  . . .

B----------------------------------------------------------------------------|
F#---------------------------------------------------------------------------|
D----------------------------------------------------------------------------|
A----------------------------------------------------------------------------|
E----------------------------------------------------------------------------|
A--10-10--10-10-10----10-10--10-10-10----10-10--10-10-10----10-10--10-10-10--|
PM .. ..  .. .. ..    .. ..  .. .. ..    .. ..  .. .. ..    .. ..  .. .. ..

B------------------------------------------------------------|
F#-----------------------------------------------------------|
D------------------------------------------------------------|
A------------------------------------------------------------|
E------------------------------------------------------------|
A--0-0-0--0-0-0--7-7-7--7-7-7--8-8-8--8-8-8--3-3-3--3-3-3--5-|
PM . . .  . . .  . . .  . . .  . . .  . . .  . . .  . . .  . 

---------------------------------------------------|
---------------------------------------------------|
---------------------------------------------------|
---------------------------------------------------|
---------------------------------------------------|
-5--5-5-5---5--5--5-5-5---0--0--0-0-0---0--0--0-0--|
 .  . . .   .  .  . . .   .  .  . . .   .  .  . .

B----------------------------------------------------------------------------|
F#---------------------------------------------------------------------------|
D----------------------------------------------------------------------------|
A----------------------------------------------------------------------------|
E----------------------------------------------------------------------------|
A--10-10--10-10-10----10-10--10-10-10----10-10--10-10-10----10-10--10-10-10--|
PM .. ..  .. .. ..    .. ..  .. .. ..    .. ..  .. .. ..    .. ..  .. .. ..
_______________________________________________________________________________________________
Bridge
B------------------------------------------------------------------------------------------------|
F#-----------------------------------------------------------------------------------------------|
D------------------------------------------------------------------------------------------------|
A------------------------------------------------------------------------------------------------|
E--8-8-8-8----5-5-5-5----------------------------------------------------------------------------|
A--8-8-8-8----5-5-5-5----0--0--0-0-0----0--0---0-0-0----0--0--0-0-0----7--7--7-7-7----7--7--7-7-7|
PM . . . .    . . . .    .  .  . . .    .  .   . . .    .  .  . . .    .  .  . . .    .  .  . . .

B---------------------------------------------------|
F#--------------------------------------------------|
D---------------------------------------------------|
A---------------------------------------------------|
E--8-8-8-8----5-5-5-5----7--7---7--7---7--7---7--7--|
A--8-8-8-8----5-5-5-5----7--7---7--7---7--7---7--7--|
PM . . . .    . . . .    .  .   .  .   .  .   .  .
_________________________________________________________________________________________________
B-----------------------------------------------------------|
F#----------------------------------------------------------|
D--------------10------------9-------------10------------9--|
A--------------x-------------x-------------x-------------x--|
E--------------8-------------7-------------8-------------7--|
A--0-0-0-0-0-0---0-0-0-0-0-0---0-0-0-0-0-0---0-0-0-0-0-0----|
PM . . . . . .   . . . . . .   . . . . . .   . . . . . .

B-----------------------------------------------------------------------------|
F#----------------------------------------------------------------------------|
D-----------------------------------------------------------------------------|
A-----------------------------------------------------------------------------|
E-----------------------------------------------------------------------------|
A--10--10--10-10-10---10--10--10-10-10---10--10--10-10-10---10--10--10-10-10--|
PM ..  ..  .. .. ..   ..  ..  .. .. ..   ..  ..  .. .. ..   ..  ..  .. .. ..

B-----------------------------------------------------------------------|
F#----------------------------------------------------------------------|
D-----------------------------------------------------------------------|
A-----------------------------------------------------------------------|
E-----------------------------------------------------------------------|
A--8--8--8-8-8----8--8--8-8-8---5--5--5-5-5--7--7--7-7-7---7--7--7-7-7--|
PM .  .  . . .    .  .  . . .   .  .  . . .  .  .  . . .   .  .  . . .

B-----------------------------------------------------------|
F#----------------------------------------------------------|
D--------------10------------9-------------10------------9--|
A--------------x-------------x-------------x-------------x--|
E--------------8-------------7-------------8-------------7--|
A--0-0-0-0-0-0---0-0-0-0-0-0---0-0-0-0-0-0---0-0-0-0-0-0----|
PM . . . . . .   . . . . . .   . . . . . .   . . . . . .

B-----------------------------------------------------------------------------|
F#----------------------------------------------------------------------------|
D-----------------------------------------------------------------------------|
A-----------------------------------------------------------------------------|
E-----------------------------------------------------------------------------|
A--10--10--10-10-10---10--10--10-10-10---10--10--10-10-10---10--10--10-10-10--|
PM ..  ..  .. .. ..   ..  ..  .. .. ..   ..  ..  .. .. ..   ..  ..  .. .. ..

B------------------------------------------------------------------------|
F#-----------------------------------------------------------------------|
D------------------------------------------------------------------------|
A------------------------------------------------------------------------|
E------------------------------------------------------------------------|
A--8--8--8-8-8---8--8--8-8-8---5--5--5-5-5--7--7--7-7-7---7--7--7-7-7----|
PM .  .  . . .   .  .  . . .   .  .  . . .  .  .  . . .   .  .  . . .
________________________________________________________________________________________________
intro
B---------------------------------------------------------------------------------------|
F#--------------------------------------------------------------------------------------|
D-------------10------------7-------------10------------12-------------10------------7--|
A-------------x-------------x-------------x-------------x--------------x-------------x--|
E-------------8-------------5-------------8-------------10-------------8-------------5--|
A--0---0--0-0----0---0--0-0----0---0--0-0----0---0--0-0-----0---0--0-0----0---0--0-0----|
PM .   .  . .    .   .  . .    .   .  . .    .   .  . .     .   .  . .    .   .  . .

B-------------------------------------------|
F#------------------------------------------|
D-------------------------------------------|
A-------------------------------------------|
E--8--8--8-8-8--8--8--8-8-8--8-8-10--10-10--|
A--8--8--8-8-8--8--8--8-8-8--8-8-10--10-10--|
PM .  .  . . .  .  .  . . .  . . ..  .. ..

B---------------------------------------------------------------------------------------|
F#--------------------------------------------------------------------------------------|
D-------------10------------7-------------10------------12-------------10------------7--|
A-------------x-------------x-------------x-------------x--------------x-------------x--|
E-------------8-------------5-------------8-------------10-------------8-------------5--|
A--0---0--0-0----0---0--0-0----0---0--0-0----0---0--0-0-----0---0--0-0----0---0--0-0----|
PM .   .  . .    .   .  . .    .   .  . .    .   .  . .     .   .  . .    .   .  . .
B------------------------------------------------|
F#-----------------------------------------------|
D------------------------------------------------|
A------------------------------------------------|
E--8--8--8-8-8--8--8--8-8-5--5--5-5-/-7--7--7~~--|
A--8--8--8-8-8--8--8--8-8-5--5--5-5-/-7--7--7~~--|
PM .  .  . . .  .  .  . . .  .  . .   .  .
_______________________________________________________________________________________________
Pauze sharon singing.
_____________________________________________________________________________________________
B---------------------------------------------------------------|
F#--------------------------------------------------------------|
D---------------------------------------------------------------|
A---------------------------------------------------------------|
E--------------12-------------11-------------12-------------11--|
A--9-9-9-9-9-9-12-9-9-9-9-9-9-11-9-9-9-9-9-9-12-9-9-9-9-9-9-11--|
PM . . . . . .    . . . . . .    . . . . . .    . . . . . .

B----------------------------------------------------------------------------------|
F#---------------------------------------------------------------------------------|
D----------------------------------------------------------------------------------|
A----------------------------------------------------------------------------------|
E--------------11-------------4-----------------------7--7---7-7-7---7--7---7-7-7--|
A--7-7-7-7-7-7-11-5-5-5-5-5-5-4--9-9-9-9-9-9--12-11-9-7--7---7-7-7---7--7---7-7-7--|
PM . . . . . .    . . . . . .    . . . . . .          .  .   . . .   .  .   . . .
_________________________________________________________________________________________________
Outro
B------------------------------------------------------------|
F#-----------------------------------------------------------|
D--------------10------------9-------------10------------9---|
A--------------x-------------x-------------x-------------x---|
E--------------8-------------7-------------8-------------7---|
A--0-0-0-0-0-0---0-0-0-0-0-0---0-0-0-0-0-0---0-0-0-0-0-0-----|
PM . . . . . .   . . . . . .   . . . . . .   . . . . . .

B-----------------------------------------------------------------------------|
F#----------------------------------------------------------------------------|
D-----------------------------------------------------------------------------|
A-----------------------------------------------------------------------------|
E-----------------------------------------------------------------------------|
A--10--10--10-10-10---10--10--10-10-10---10--10--10-10-10---10--10--10-10-10--|
PM ..  ..  .. .. ..   ..  ..  .. .. ..   ..  ..  .. .. ..   ..  ..  .. .. ..

B-----------------------------------------------------------------------|
F#----------------------------------------------------------------------|
D-----------------------------------------------------------------------|
A-----------------------------------------------------------------------|
E-----------------------------------------------------------------------|
A--8--8--8-8-8----8--8--8-8-8---5--5--5-5-5--7--7--7-7-7---7--7--7-7-7--|
PM .  .  . . .    .  .  . . .   .  .  . . .  .  .  . . .   .  .  . . .

B------------------------------------------------------------------------------------|
F#-----------------------------------------------------------------------------------|
D------------------------------------------------------------------------------------|
A------------------------------------------------------------------------7~~~~0~~~~--|
E--0-0-0-0-0-0-2-2-2-2-2-2-3-3-3-3-3-3-5-5-5-5-5-5--7---8-7-5--7--8-7-5--7~~~~0~~~~--|
A--0-0-0-0-0-0-2-2-2-2-2-2-3-3-3-3-3-3-5-5-5-5-5-5--7---8-7-5--7--8-7-5--7-----------|~0~fade out
PM . . . . . . . . . . . . . . . . . . . . . . . .  .   . . .  .  . . .

THE END^^
comments
We did not receive enough feedback on this tab! Please rate:
print report bad tab
1 2 3 4 5
I want to post or [tab]
guest
You may want to rate the tab now too:
select rating
Please do not post tabs as comments. Select "correction" instead!