Oops, an error
Loading. Please wait.

Iron Tab

4,665 views 12 this week
2 commentsread comments
1 2 3 4 5
excellent!
x 1
Autoscroll
+/-
esc
set tempo
stop
Contributor
Difficulty
Tuning
intermediate
B F# B E G# C#
Hey! There's an official Ultimate Guitar app which is ideal
for learning songs when you're away from computer. Get the app
WARNING: You are trying to view
                                    content from Ultimate-Guitar.com
                                    in an unauthorized application,
                                    which is prohibited.

                                    Please use an official Ultimate
                                    Guitar Tabs application for iPhone,
                                    iPad or Android to access legitimate
                                    chords, guitar, bass, and drum tabs
                                    from Ultimate-Guitar.com database.

                                    Type "ultimate guitar tabs" in Apple
                                    App Store's or Android Market's
                                    search to find the application.
----------------------------------------------------------------------------
                                    Iron
                               Within Temptation
----------------------------------------------------------------------------

To start out, this is my new favorite song from WT. It’s got a sweet solo, beautiful
Chorus, and the breakdown is insane! If you want to see that all the tab is possible to
play, check out my triple guitar cover, and if you want drum cover too! Enjoy!

Username: dkm817 (same on X box live)
Youtube Guitar Cover: http://www.youtube.com/watch?v=nypPPR9kCrs
Email: guitardrums@rockfan.com

(Tab Legend at bottom)
Guitar 1 Rhythmic        (B F# B E G# C#)
Guitar 2 Lead            (B F# B E G# C#)
Guitar 3 Mixed           (B F# B E B  C#)- This one is tuned different because of solo,
I kept the tuning the same until then and after...

Intro 1--------------------------------------------------------------------

Guitar 1
C#-------------------------------------------------------------------------|
G#-------------------------------------------------------------------------|
E -------------------------------------------------------------------------|
B -0--0--0--3--2--0--0--0--0--3--2--0--0--0--0--3--2--0--0--0--0--3--2--0--|
F#-------------------------------------------------------------------------|
B -------------------------------------------------------------------------|

Intro 2--------------------------------------------------------------------

Guitar 1
C#-------------------------------------------------------------------------|
G#-------------------------------------------------------------------------|
E -------------------------------------------------------------------------|
B -0--0--0--3--2--0--0--0--0--3--2--0--0--0--0--3--2--0--0--0--0--3--2--0--|
F#-------------------------------------------------------------------------|
B -------------------------------------------------------------------------|

Guitar 2
C#-------------------------------------------------------------------------|
G#-------------------------------------------------------------------------|
E -7--7--7--10-9--7--7--7--7--10-9--7--7--7--7--10-9--7--7--7--7--10-9--7--|
B -------------------------------------------------------------------------|
F#-------------------------------------------------------------------------|
B -------------------------------------------------------------------------|

Guitar 3
C#-------------------------------------------------------------------------|
G#-------------------------------------------------------------------------|
E -7-----7-----7--7--7-----7-----7--7--7-----7-----7--7--7-----7-----7--7--|
B -7-----7-----7--7--7-----7-----7--7--7-----7-----7--7--7-----7-----7--7--|
F#-5-----5-----5--5--5-----5-----5--5--5-----5-----5--5--5-----5-----5--5--|
B -------------------------------------------------------------------------|
Pm .     .     .  .  .     .     .  .  .     .     .  .  .     .     .  .

Guitar 1
C#-------------------------------------------------------------------------|
G#-------------------------------------------------------------------------|
E -------------------------------------------------------------------------|
B -0--0--0--3--2--0--0--0--0--3--2--0--0--0--0--3--2--0--0--0--0--3--2--0--|
F#-------------------------------------------------------------------------|
B -------------------------------------------------------------------------|

Guitar 2
C#-------------------------------------------------------------------------|
G#-------------------------------------------------------------------------|
E -7--7--7--10-9--7--7--7--7--10-9--7--7--7--7--10-9--7--7--7--7--10-9--7--|
B -------------------------------------------------------------------------|
F#-------------------------------------------------------------------------|
B -------------------------------------------------------------------------|

Guitar 3
C#-------------------------------------------------------------------------|
G#-------------------------------------------------------------------------|
E -3-----3-----3--3--3-----3-----3--3--3--5--5--5--5--5--5-----5--5--5--5--|
B -3-----3-----3--3--3-----3-----3--3--3--5--5--5--5--5--5-----5--5--5--5--|
F#-1-----1-----1--1--1-----1-----1--1--1--3--3--3--3--3--3-----3--3--3--3--|
B -------------------------------------------------------------------------|
Pm .     .     .  .  .     .     .  .  .  .  .  .  .  .  .     .  .  .  .

Guitar 1
C#-------------------------------------------------------------------------|
G#-------------------------------------------------------------------------|
E -------------------------------------------------------------------------|
B -0--0--0--3--2--0--0--0--0--3--2--0--0--0--0--3--2--0--0--0--0--3--2--0--|
F#-------------------------------------------------------------------------|
B -------------------------------------------------------------------------|

Guitar 2
C#-------------------------------------------------------------------------|
G#-------------------------------------------------------------------------|
E -7--7--7--10-9--7--7--7--7--10-9--7--7--7--7--10-9--7--7--7--7--10-9--7--|
B -------------------------------------------------------------------------|
F#-------------------------------------------------------------------------|
B -------------------------------------------------------------------------|

Guitar 3
C#-------------------------------------------------------------------------|
G#-------------------------------------------------------------------------|
E -7-----7-----7--7--7-----7-----7--7--7-----7-----7--7--7-----7-----7--7--|
B -7-----7-----7--7--7-----7-----7--7--7-----7-----7--7--7-----7-----7--7--|
F#-5-----5-----5--5--5-----5-----5--5--5-----5-----5--5--5-----5-----5--5--|
B -------------------------------------------------------------------------|
Pm .     .     .  .  .     .     .  .  .     .     .  .  .     .     .  .

Guitar 1
C#-------------------------------------------------------------------------|
G#-------------------------------------------------------------------------|
E -------------------------------------------------------------------------|
B -0--0--0--3--2--0--0--0--0--3--2--0--0--0--0--3--2--0--0--0--0--3--2--0--|
F#-------------------------------------------------------------------------|
B -------------------------------------------------------------------------|

Guitar 2
C#-------------------------------------------------------------------------|
G#-------------------------------------------------------------------------|
E -7--7--7--10-9--7--7--7--7--10-9--7--7--7--7--10-9--7--7--7--7--10-9--7--|
B -------------------------------------------------------------------------|
F#-------------------------------------------------------------------------|
B -------------------------------------------------------------------------|

Guitar 3
C#-------------------------------------------------------------------------|
G#-------------------------------------------------------------------------|
E -3-----3-----3--3--3-----3-----3--3--3--5--5--5--5--5--5-----5--5--5--5--|
B -3-----3-----3--3--3-----3-----3--3--3--5--5--5--5--5--5-----5--5--5--5--|
F#-1-----1-----1--1--1-----1-----1--1--1--3--3--3--3--3--3-----3--3--3--3--|
B -------------------------------------------------------------------------|
Pm .     .     .  .  .     .     .  .  .  .  .  .  .  .  .     .  .  .  .

Intro 3--------------------------------------------------------------------

Guitar 1
C#-------------------------------------------------------------------------|
G#-------------------------------------------------------------------------|
E -------------------------------------------------------------------------|
B -0--0--0--3--2--0--0--0--0--3--2--0--0--0--0--3--2--0--0--0--0--3--2--0--|
F#-------------------------------------------------------------------------|
B -------------------------------------------------------------------------|

Guitar 2
C#-------------------------------------------------------------------------|
G#-6--6--6--10-8--6--6--6--6--10-8--6--6--6--6--10-8--6--6--6--6--10-8--6--|
E -------------------------------------------------------------------------|
B -------------------------------------------------------------------------|
F#-------------------------------------------------------------------------|
B -------------------------------------------------------------------------|

Guitar 3
C#-------------------------------------------------------------------------|
G#-------------------------------------------------------------------------|
E -7~~~~-7~~~~-7--7--7~~~~-7~~~~-7--7--7~~~~-7~~~~-7--7--7~~~~-7~~~~-7--7--|
B -7~~~~-7~~~~-7--7--7~~~~-7~~~~-7--7--7~~~~-7~~~~-7--7--7~~~~-7~~~~-7--7--|
F#-5~~~~-5~~~~-5--5--5~~~~-5~~~~-5--5--5~~~~-5~~~~-5--5--5~~~~-5~~~~-5--5--|
B -------------------------------------------------------------------------|

Guitar 1
C#-------------------------------------------------------------------------|
G#-------------------------------------------------------------------------|
E -------------------------------------------------------------------------|
B -0--0--0--3--2--0--0--0--0--3--2--0--0--0--0--3--2--0--0--0--0--3--2--0--|
F#-------------------------------------------------------------------------|
B -------------------------------------------------------------------------|

Guitar 2
C#-------------------------------------------------------------------------|
G#-6--6--6--10-8--6--6--6--6--10-8--6--6--6--6--10-8--6--6--6--6--10-8--6--|
E -------------------------------------------------------------------------|
B -------------------------------------------------------------------------|
F#-------------------------------------------------------------------------|
B -------------------------------------------------------------------------|

Guitar 3
C#-------------------------------------------------------------------------|
G#-------------------------------------------------------------------------|
E -3~~~~-3~~~~-3--3--3~~~~-3~~~~-3--3--3--5--5--5--5--5--5~~~~-5--5--5--5--|
B -3~~~~-3~~~~-3--3--3~~~~-3~~~~-3--3--3--5--5--5--5--5--5~~~~-5--5--5--5--|
F#-1~~~~-1~~~~-1--1--1~~~~-1~~~~-1--1--1--3--3--3--3--3--3~~~~-3--3--3--3--|
B -------------------------------------------------------------------------|

Guitar 1
C#-------------------------------------------------------------------------|
G#-------------------------------------------------------------------------|
E -------------------------------------------------------------------------|
B -0--0--0--3--2--0--0--0--0--3--2--0--0--0--0--3--2--0--0--0--0--3--2--0--|
F#-------------------------------------------------------------------------|
B -------------------------------------------------------------------------|

Guitar 2
C#-------------------------------------------------------------------------|
G#-6--6--6--10-8--6--6--6--6--10-8--6--6--6--6--10-8--6--6--6--6--10-8--6--|
E -------------------------------------------------------------------------|
B -------------------------------------------------------------------------|
F#-------------------------------------------------------------------------|
B -------------------------------------------------------------------------|

Guitar 3
C#-------------------------------------------------------------------------|
G#-------------------------------------------------------------------------|
E -7~~~~-7~~~~-7--7--7~~~~-7~~~~-7--7--7~~~~-7~~~~-7--7--7~~~~-7~~~~-7--7--|
B -7~~~~-7~~~~-7--7--7~~~~-7~~~~-7--7--7~~~~-7~~~~-7--7--7~~~~-7~~~~-7--7--|
F#-5~~~~-5~~~~-5--5--5~~~~-5~~~~-5--5--5~~~~-5~~~~-5--5--5~~~~-5~~~~-5--5--|
B -------------------------------------------------------------------------|

Guitar 1
C#-------------------------------------------------------------------------|
G#-------------------------------------------------------------------------|
E -------------------------------------------------------------------------|
B -0--0--0--3--2--0--0--0--0--3--2--0--0--0--0--3--2--0--0--0--0--3--2--0--|
F#-------------------------------------------------------------------------|
B -------------------------------------------------------------------------|

Guitar 2
C#-------------------------------------------------------------------------|
G#-6--6--6--10-8--6--6--6--6--10-8--6--6--6--6--10-8--6--6--6--6--10-8--6--|
E -------------------------------------------------------------------------|
B -------------------------------------------------------------------------|
F#-------------------------------------------------------------------------|
B -------------------------------------------------------------------------|

Guitar 3
C#-------------------------------------------------------------------------|
G#-------------------------------------------------------------------------|
E -3~~~~-3~~~~-3--3--3~~~~-3~~~~-3--3--3--5--5--5--5--5--5~~~~-5--5--5--5--|
B -3~~~~-3~~~~-3--3--3~~~~-3~~~~-3--3--3--5--5--5--5--5--5~~~~-5--5--5--5--|
F#-1~~~~-1~~~~-1--1--1~~~~-1~~~~-1--1--1--3--3--3--3--3--3~~~~-3--3--3--3--|
B -------------------------------------------------------------------------|

Intro 4--------------------------------------------------------------------

Guitar 1
C#-------------------------------------------------------------------------|
G#-------------------------------------------------------------------------|
E -------------------------------------------------------------------------|
B -0--0--0--3--2--0--0--0--0--3--2--0--0--0--0--3--2--0--0--0--0--3--2--0--|
F#-------------------------------------------------------------------------|
B -------------------------------------------------------------------------|

Guitar 2
C#-------------------------------------------------------------------------|
G#-6--6--6--10-8--6--6--6--6--10-8--6--6--6--6--10-8--6--6--6--6--10-8--6--|
E -------------------------------------------------------------------------|
B -------------------------------------------------------------------------|
F#-------------------------------------------------------------------------|
B -------------------------------------------------------------------------|

Guitar 3
C#-------------------------------------------------------------------------|
G#-------------------------------------------------------------------------|
E -7~~~~-7~~~~-7--7--7~~~~-7~~~~-7--7--7~~~~-7~~~~-7--7--7~~~~-7~~~~-7--7--|
B -7~~~~-7~~~~-7--7--7~~~~-7~~~~-7--7--7~~~~-7~~~~-7--7--7~~~~-7~~~~-7--7--|
F#-5~~~~-5~~~~-5--5--5~~~~-5~~~~-5--5--5~~~~-5~~~~-5--5--5~~~~-5~~~~-5--5--|
B -------------------------------------------------------------------------|

Guitar 1
C#-------------------------------------------------------------------------|
G#-------------------------------------------------------------------------|
E -------------------------------------------------------------------------|
B -0--0--0--3--2--0--0--0--0--3--2--0--0--0--0--3--2--0--0--0--0--3--2--0--|
F#-------------------------------------------------------------------------|
B -------------------------------------------------------------------------|

Guitar 2
C#-------------------------------------------------------------------------|
G#-6--6--6--10-8--6--6--6--6--10-8--6--6--6--6--10-8--6--6--6--6--10-8--6--|
E -------------------------------------------------------------------------|
B -------------------------------------------------------------------------|
F#-------------------------------------------------------------------------|
B -------------------------------------------------------------------------|

Guitar 3
C#-------------------------------------------------------------------------|
G#-------------------------------------------------------------------------|
E -3~~~~-3~~~~-3--3--3~~~~-3~~~~-3--3--3--5--5--5--5--5--5~~~~-5--5--5--5--|
B -3~~~~-3~~~~-3--3--3~~~~-3~~~~-3--3--3--5--5--5--5--5--5~~~~-5--5--5--5--|
F#-1~~~~-1~~~~-1--1--1~~~~-1~~~~-1--1--1--3--3--3--3--3--3~~~~-3--3--3--3--|
B -------------------------------------------------------------------------|

Guitar 1
C#-------------------------------------------------------------------------|
G#-------------------------------------------------------------------------|
E -------------------------------------------------------------------------|
B -0--0--0--3--2--0--0--0--0--3--2--0--0--0--0--3--2--0--0--0--0--3--2--0--|
F#-------------------------------------------------------------------------|
B -------------------------------------------------------------------------|

Guitar 2
C#-------------------------------------------------------------------------|
G#-6--6--6--10-8--6--6--6--6--10-8--6--6--6--6--10-8--6--6--6--6--10-8--6--|
E -------------------------------------------------------------------------|
B -------------------------------------------------------------------------|
F#-------------------------------------------------------------------------|
B -------------------------------------------------------------------------|

Guitar 3
C#-------------------------------------------------------------------------|
G#-------------------------------------------------------------------------|
E -7~~~~-7~~~~-7--7--7~~~~-7~~~~-7--7--7~~~~-7~~~~-7--7--7~~~~-7~~~~-7--7--|
B -7~~~~-7~~~~-7--7--7~~~~-7~~~~-7--7--7~~~~-7~~~~-7--7--7~~~~-7~~~~-7--7--|
F#-5~~~~-5~~~~-5--5--5~~~~-5~~~~-5--5--5~~~~-5~~~~-5--5--5~~~~-5~~~~-5--5--|
B -------------------------------------------------------------------------|

Guitar 1
C#-------------------------------------------------------------------------|
G#-------------------------------------------------------------------------|
E -------------------------------------------------------------------------|
B -0--0--0--3--2--0--0--0--0--3--2--0--0--0--0--3--2--0--0--0--0--3--2--0--|
F#-------------------------------------------------------------------------|
B -------------------------------------------------------------------------|

Guitar 2
C#-------------------------------------------------------------------------|
G#-6--6--6--10-8--6--6--6--6--10-8--6--6--6--6--10-8--6--6--6--6--10-8--6--|
E -------------------------------------------------------------------------|
B -------------------------------------------------------------------------|
F#-------------------------------------------------------------------------|
B -------------------------------------------------------------------------|

Guitar 3
C#-------------------------------------------------------------------------|
G#-------------------------------------------------------------------------|
E -3~~~~-3~~~~-3--3--3~~~~-3~~~~-3--3--3--5--5--5--5--5--5~~~~-5--5--5--5--|
B -3~~~~-3~~~~-3--3--3~~~~-3~~~~-3--3--3--5--5--5--5--5--5~~~~-5--5--5--5--|
F#-1~~~~-1~~~~-1--1--1~~~~-1~~~~-1--1--1--3--3--3--3--3--3~~~~-3--3--3--3--|
B -------------------------------------------------------------------------|

Verse 1--------------------------------------------------------------------

Guitar 1
C#-------------------------------------------------------------------------|
G#-------------------------------------------------------------------------|
E -------------------------------------------------------------------------|
B -0~~~~~~~~~~~~~~~~~~~~~~~~~~~~~~~~~~~~~~~~~~~~~~~~~~~~~~~~~~~~~~~~~~~~~~-
F#-------------------------------------------------------------------------|
B -------------------------------------------------------------------------|

Guitar 2
C#-------------------------------------------------------------------------
G#-6~~~~~~~~~~~~~~~~~~~~~~~~~~~~~~~~~~~~~~~~~~~~~~~~~~~~~~~~~~~~~~~~~~~~~~-
E -------------------------------------------------------------------------|
B -------------------------------------------------------------------------|
F#-------------------------------------------------------------------------|
B -------------------------------------------------------------------------|

Guitar 3
C#-------------------------------------------------------------------------|
G#-------------------------------------------------------------------------|
E -7-----7-----7--7--7-----7-----7--7--7-----7-----7--7--7-----7-----7--7--|
B -7-----7-----7--7--7-----7-----7--7--7-----7-----7--7--7-----7-----7--7--|
F#-5-----5-----5--5--5-----5-----5--5--5-----5-----5--5--5-----5-----5--5--|
B -------------------------------------------------------------------------|
Pm .     .     .  .  .     .     .  .  .     .     .  .  .     .     .  .

Guitar 3
C#-------------------------------------------------------------------------|
G#-------------------------------------------------------------------------|
E -3-----3-----3--3--3-----3-----3--3--3--5--5--5--5--5--5-----5--5--5--5--|
B -3-----3-----3--3--3-----3-----3--3--3--5--5--5--5--5--5-----5--5--5--5--|
F#-1-----1-----1--1--1-----1-----1--1--1--3--3--3--3--3--3-----3--3--3--3--|
B -------------------------------------------------------------------------|
Pm .     .     .  .  .     .     .  .  .  .  .  .  .  .  .     .  .  .  .

Guitar 3
C#-------------------------------------------------------------------------|
G#-------------------------------------------------------------------------|
E -7-----7-----7--7--7-----7-----7--7--7-----7-----7--7--7-----7-----7--7--|
B -7-----7-----7--7--7-----7-----7--7--7-----7-----7--7--7-----7-----7--7--|
F#-5-----5-----5--5--5-----5-----5--5--5-----5-----5--5--5-----5-----5--5--|
B -------------------------------------------------------------------------|
Pm .     .     .  .  .     .     .  .  .     .     .  .  .     .     .  .

Guitar 3
C#-------------------------------------------------------------------------|
G#-------------------------------------------------------------------------|
E -3-----3-----3--3--3-----3-----3--3--3--5--5--5--5--5--5-----5--5--5--5--|
B -3-----3-----3--3--3-----3-----3--3--3--5--5--5--5--5--5-----5--5--5--5--|
F#-1-----1-----1--1--1-----1-----1--1--1--3--3--3--3--3--3-----3--3--3--3--|
B -------------------------------------------------------------------------|
Pm .     .     .  .  .     .     .  .  .  .  .  .  .  .  .     .  .  .  .

Guitars 1 & 2
C#-------------------------------------------------------------------------|
G#-------------------------------------------------------------------------|
E -------------------------------------------------------------------------|
B -0-----0-----0--0--0-----0-----0--0--0-----0-----0--0--0-----0-----0--0--|
F#-0-----0-----0--0--0-----0-----0--0--0-----0-----0--0--0-----0-----0--0--|
B -0-----0-----0--0--0-----0-----0--0--0-----0-----0--0--0-----0-----0--0--|
Pm .     .     .  .  .     .     .  .  .     .     .  .  .     .     .  .

Guitars 3
C#-------------------------------------------------------------------------|
G#-------------------------------------------------------------------------|
E -7-----7-----7--7--7-----7-----7--7--7-----7-----7--7--7-----7-----7--7--|
B -7-----7-----7--7--7-----7-----7--7--7-----7-----7--7--7-----7-----7--7--|
F#-5-----5-----5--5--5-----5-----5--5--5-----5-----5--5--5-----5-----5--5--|
B -------------------------------------------------------------------------|
Pm .     .     .  .  .     .     .  .  .     .     .  .  .     .     .  .

Guitar All
C#-------------------------------------------------------------------------|
G#-------------------------------------------------------------------------|
E -3-----3-----3--3--3-----3-----3--3--5--5--5-----5--5--5-----5-----5--5--|
B -3-----3-----3--3--3-----3-----3--3--5--5--5-----5--5--5-----5-----5--5--|
F#-1-----1-----1--1--1-----1-----1--1--3--3--3-----3--3--3-----3-----3--3--|
B -------------------------------------------------------------------------|
Pm .     .     .  .  .     .     .  .  .  .  .     .  .  .     .     .  .

Guitars 1 & 2
C#-------------------------------------------------------------------------|
G#-------------------------------------------------------------------------|
E -------------------------------------------------------------------------|
B -0-----0-----0--0--0-----0-----0--0--0-----0-----0--0--0-----0-----0--0--|
F#-0-----0-----0--0--0-----0-----0--0--0-----0-----0--0--0-----0-----0--0--|
B -0-----0-----0--0--0-----0-----0--0--0-----0-----0--0--0-----0-----0--0--|
Pm .     .     .  .  .     .     .  .  .     .     .  .  .     .     .  .

Guitar 3
C#-------------------------------------------------------------------------|
G#-------------------------------------------------------------------------|
E -7-----7-----7--7--7-----7-----7--7--7-----7-----7--7--7-----7-----7--7--|
B -7-----7-----7--7--7-----7-----7--7--7-----7-----7--7--7-----7-----7--7--|
F#-5-----5-----5--5--5-----5-----5--5--5-----5-----5--5--5-----5-----5--5--|
B -------------------------------------------------------------------------|
Pm .     .     .  .  .     .     .  .  .     .     .  .  .     .     .  .

Guitar All
C#-------------------------------------------------------------------------|
G#-------------------------------------------------------------------------|
E -3-----3-----3--3--3-----3-----3--3--5--5--5-----5--5--5-----5-----5--5--|
B -3-----3-----3--3--3-----3-----3--3--5--5--5-----5--5--5-----5-----5--5--|
F#-1-----1-----1--1--1-----1-----1--1--3--3--3-----3--3--3-----3-----3--3--|
B -------------------------------------------------------------------------|
Pm .     .     .  .  .     .     .  .  .  .  .     .  .  .     .     .  .

Pre Chorus 1---------------------------------------------------------------

Guitar 1 & 3
C#-------------------------------------------------------------------------|
G#-------------------------------------------------------------------------|
E -3-----3-----3--3--3-----3-----3--3--3-----3-----3--3--5-----5-----5--5--|
B -3-----3-----3--3--3-----3-----3--3--3-----3-----3--3--5-----5-----5--5--|
F#-1-----1-----1--1--1-----1-----1--1--1-----1-----1--1--3-----3-----3--3--|
B -------------------------------------------------------------------------|
Pm .     .     .  .  .     .     .  .  .     .     .  .  .     .     .  .

Guitar 2
C#-------------------------------------------------------------------------|
G#-------------------------------------------------------------------------|
E -10~~~~~~~~~~~~~~~~~~~~~~~~~~~~~~~~~~~~~~~~~~~~~~~~~~~~~~~~~~~~~~~~~~~~~-
B -------------------------------------------------------------------------|
F#-------------------------------------------------------------------------|
B -------------------------------------------------------------------------|

Guitar 1 & 3
C#-------------------------------------------------------------------------|
G#-------------------------------------------------------------------------|
E -7-----7-----7--7--7-----7-----7--7--7-----7-----7--7--5-----5-----5--5--|
B -7-----7-----7--7--7-----7-----7--7--7-----7-----7--7--5-----5-----5--5--|
F#-5-----5-----5--5--5-----5-----5--5--5-----5-----5--5--3-----3-----3--3--|
B -------------------------------------------------------------------------|
Pm .     .     .  .  .     .     .  .  .     .     .  .  .     .     .  .

Guitar 2
C#-------------------------------------------------------------------------
G#-10~~~~~~~~~~~~~~~~~~~~~~~~~~~~~~~~~~~~~~~~~~~~~~~~~~~~~~~~~~~~~~~~~~~~~-
E -------------------------------------------------------------------------|
B -------------------------------------------------------------------------|
F#-------------------------------------------------------------------------|
B -------------------------------------------------------------------------|

Guitar 1 & 3
C#-------------------------------------------------------------------------|
G#-------------------------------------------------------------------------|
E -3-----3-----3--3--3-----3-----3--3--3-----3-----3--3--3-----3-----3--3--|
B -3-----3-----3--3--3-----3-----3--3--3-----3-----3--3--3-----3-----3--3--|
F#-1-----1-----1--1--1-----1-----1--1--1-----1-----1--1--1-----1-----1--1--|
B -------------------------------------------------------------------------|
Pm .     .     .  .  .     .     .  .  .     .     .  .  .     .     .  .

Guitar 2
C#-------------------------------------------------------------------------|
G#-------------------------------------------------------------------------|
E -10~~~~~~~~~~~~~~~~~~~~~~~~~~~~~~~~~~~~~~~~~~~~~~~~~~~~~~~~~~~~~~~~~~~~~-
B -------------------------------------------------------------------------|
F#-------------------------------------------------------------------------|
B -------------------------------------------------------------------------|

Guitar 1 & 3
C#-------------------------------------------------------------------------|
G#-------------------------------------------------------------------------|
E -5-----5-----5--5--5-----5-----5--5--5-----5-----5--5--2~~~~~~~-5~~~~~~~-|
B -5-----5-----5--5--5-----5-----5--5--5-----5-----5--5--2~~~~~~~-5~~~~~~~-|
F#-3-----3-----3--3--3-----3-----3--3--3-----3-----3--3--0~~~~~~~-3~~~~~~~-|
B -------------------------------------------------------------------------|
Pm .     .     .  .  .     .     .  .  .     .     .  .

Guitar 2
C#-------------------------------------------------------------------------|
G#-------------------------------------------------------------------------|
E -12~~~~~~~~~~~~~~~~~~~~~~~~~~~~~~~~~~~~~~~~~~~~~~~~~~~-------------------|
B -------------------------------------------------------7~~~~~~~-10~~~~~~-|
F#-------------------------------------------------------------------------|
B -------------------------------------------------------------------------|

Chorus 1-------------------------------------------------------------------

All Guitars
C#-------------------------------------------------------------------------|
G#-------------------------------------------------------------------------|
E -7~~~~~~~~~~~~~~~~-3~~~~~~~~~~~~~~~~-------------------2~~~~~~-5~~~-5~~~-|
B -7~~~~~~~~~~~~~~~~-3~~~~~~~~~~~~~~~~-3~~~~~~~~~~~~~~~~-2~~~~~~-5~~~-5~~~-|
F#-5~~~~~~~~~~~~~~~~-1~~~~~~~~~~~~~~~~-3~~~~~~~~~~~~~~~~-0~~~~~~-3~~~-3~~~-|
B -------------------------------------3~~~~~~~~~~~~~~~~-------------------|

All Guitars
C#-------------------------------------------------------------------------|
G#-------------------------------------------------------------------------|
E -7~~~~~~~~~~~~~~~~-3~~~~~~~~~~~~~~~~-5~~~~~~~~~~~~~~~~-5~~~~~~-2~~~-5~~~-|
B -7~~~~~~~~~~~~~~~~-3~~~~~~~~~~~~~~~~-5~~~~~~~~~~~~~~~~-5~~~~~~-2~~~-5~~~-|
F#-5~~~~~~~~~~~~~~~~-1~~~~~~~~~~~~~~~~-3~~~~~~~~~~~~~~~~-3~~~~~~-0~~~-3~~~-|
B -------------------------------------------------------------------------|

All Guitars
C#-------------------------------------------------------------------------|
G#-------------------------------------------------------------------------|
E -7~~~~~~~~~~~~~~~~-3~~~~~~~~~~~~~~~~-------------------2~~~~~~-5~~~-5~~~-|
B -7~~~~~~~~~~~~~~~~-3~~~~~~~~~~~~~~~~-3~~~~~~~~~~~~~~~~-2~~~~~~-5~~~-5~~~-|
F#-5~~~~~~~~~~~~~~~~-1~~~~~~~~~~~~~~~~-3~~~~~~~~~~~~~~~~-0~~~~~~-3~~~-3~~~-|
B -------------------------------------3~~~~~~~~~~~~~~~~-------------------|

All Guitars
C#-------------------------------------------------------------------------|
G#-------------------------------------------------------------------------|
E -7~~~~~~~~~~~~~~~~-3~~~~~~~~~~~~~~~~-5~~~~~~~~~~~~~~~~-5~~~~~~-2~~~-5~~~-|
B -7~~~~~~~~~~~~~~~~-3~~~~~~~~~~~~~~~~-5~~~~~~~~~~~~~~~~-5~~~~~~-2~~~-5~~~-|
F#-5~~~~~~~~~~~~~~~~-1~~~~~~~~~~~~~~~~-3~~~~~~~~~~~~~~~~-3~~~~~~-0~~~-3~~~-|
B -------------------------------------------------------------------------|

Break Off 1----------------------------------------------------------------

Guitar 1
C#-------------------------------------------------------------------------|
G#-------------------------------------------------------------------------|
E -------------------------------------------------------------------------|
B -0--0--0--3--2--0--0--0--0--3--2--0--0--0--0--3--2--0--0--0--0--3--2--0--|
F#-------------------------------------------------------------------------|
B -------------------------------------------------------------------------|

Guitar 2
C#-------------------------------------------------------------------------|
G#-6--6--6--10-8--6--6--6--6--10-8--6--6--6--6--10-8--6--6--6--6--10-8--6--|
E -------------------------------------------------------------------------|
B -------------------------------------------------------------------------|
F#-------------------------------------------------------------------------|
B -------------------------------------------------------------------------|

Guitar 3
C#-------------------------------------------------------------------------|
G#-------------------------------------------------------------------------|
E -7~~~~-7~~~~-7--7--7~~~~-7~~~~-7--7--7~~~~-7~~~~-7--7--7~~~~-7~~~~-7--7--|
B -7~~~~-7~~~~-7--7--7~~~~-7~~~~-7--7--7~~~~-7~~~~-7--7--7~~~~-7~~~~-7--7--|
F#-5~~~~-5~~~~-5--5--5~~~~-5~~~~-5--5--5~~~~-5~~~~-5--5--5~~~~-5~~~~-5--5--|
B -------------------------------------------------------------------------|

Guitar 1
C#-------------------------------------------------------------------------|
G#-------------------------------------------------------------------------|
E -------------------------------------------------------------------------|
B -0--0--0--3--2--0--0--0--0--3--2--0--0--0--0--3--2--0--0--0--0--3--2--0--|
F#-------------------------------------------------------------------------|
B -------------------------------------------------------------------------|

Guitar 2
C#-------------------------------------------------------------------------|
G#-6--6--6--10-8--6--6--6--6--10-8--6--6--6--6--10-8--6--6--6--6--10-8--6--|
E -------------------------------------------------------------------------|
B -------------------------------------------------------------------------|
F#-------------------------------------------------------------------------|
B -------------------------------------------------------------------------|

Guitar 3
C#-------------------------------------------------------------------------|
G#-------------------------------------------------------------------------|
E -3~~~~-3~~~~-3--3--3~~~~-3~~~~-3--3--3--5--5--5--5--5--5~~~~-5--5--5--5--|
B -3~~~~-3~~~~-3--3--3~~~~-3~~~~-3--3--3--5--5--5--5--5--5~~~~-5--5--5--5--|
F#-1~~~~-1~~~~-1--1--1~~~~-1~~~~-1--1--1--3--3--3--3--3--3~~~~-3--3--3--3--|
B -------------------------------------------------------------------------|

Guitar 1
C#-------------------------------------------------------------------------|
G#-------------------------------------------------------------------------|
E -------------------------------------------------------------------------|
B -0--0--0--3--2--0--0--0--0--3--2--0--0--0--0--3--2--0--0--0--0--3--2--0--|
F#-------------------------------------------------------------------------|
B -------------------------------------------------------------------------|

Guitar 2
C#-------------------------------------------------------------------------|
G#-6--6--6--10-8--6--6--6--6--10-8--6--6--6--6--10-8--6--6--6--6--10-8--6--|
E -------------------------------------------------------------------------|
B -------------------------------------------------------------------------|
F#-------------------------------------------------------------------------|
B -------------------------------------------------------------------------|

Guitar 3
C#-------------------------------------------------------------------------|
G#-------------------------------------------------------------------------|
E -7~~~~-7~~~~-7--7--7~~~~-7~~~~-7--7--7~~~~-7~~~~-7--7--7~~~~-7~~~~-7--7--|
B -7~~~~-7~~~~-7--7--7~~~~-7~~~~-7--7--7~~~~-7~~~~-7--7--7~~~~-7~~~~-7--7--|
F#-5~~~~-5~~~~-5--5--5~~~~-5~~~~-5--5--5~~~~-5~~~~-5--5--5~~~~-5~~~~-5--5--|
B -------------------------------------------------------------------------|

Guitar 1
C#-------------------------------------------------------------------------|
G#-------------------------------------------------------------------------|
E -------------------------------------------------------------------------|
B -0--0--0--3--2--0--0--0--0--3--2--0--0--0--0--3--2--0--0--0--0--3--2--0--|
F#-------------------------------------------------------------------------|
B -------------------------------------------------------------------------|

Guitar 2
C#-------------------------------------------------------------------------|
G#-6--6--6--10-8--6--6--6--6--10-8--6--6--6--6--10-8--6--6--6--6--10-8--6--|
E -------------------------------------------------------------------------|
B -------------------------------------------------------------------------|
F#-------------------------------------------------------------------------|
B -------------------------------------------------------------------------|

Guitar 3
C#-------------------------------------------------------------------------|
G#-------------------------------------------------------------------------|
E -3~~~~-3~~~~-3--3--3~~~~-3~~~~-3--3--3--5--5--5--5--5--2~~~~~~~-5~~~~~~~-|
B -3~~~~-3~~~~-3--3--3~~~~-3~~~~-3--3--3--5--5--5--5--5--2~~~~~~~-5~~~~~~~-|
F#-1~~~~-1~~~~-1--1--1~~~~-1~~~~-1--1--1--3--3--3--3--3--0~~~~~~~-3~~~~~~~-|
B -------------------------------------------------------------------------|

Verse 2--------------------------------------------------------------------

Guitar 1
C#-------------------------------------------------------------------------|
G#-------------------------------------------------------------------------|
E -------------------------------------------------------------------------|
B -0~~~~~~~~~~~~~~~~~~~~~~~~~~~~~~~~~~~~~~~~~~~~~~~~~~~~~~~~~~~~~~~~~~~~~~-
F#-------------------------------------------------------------------------|
B -------------------------------------------------------------------------|

Guitar 2
C#-------------------------------------------------------------------------
G#-6~~~~~~~~~~~~~~~~~~~~~~~~~~~~~~~~~~~~~~~~~~~~~~~~~~~~~~~~~~~~~~~~~~~~~~-
E -------------------------------------------------------------------------|
B -------------------------------------------------------------------------|
F#-------------------------------------------------------------------------|
B -------------------------------------------------------------------------|

Guitar 3
C#-------------------------------------------------------------------------|
G#-------------------------------------------------------------------------|
E -------------------------------------------------------------------------|
B -------------------------------------------------------------------------|
F#-------------------------------------------------------------------------|
B -------------------------------------------------------------------------|

Guitar 3 (after drum fill)
C#-------------------------------------------------------------------------|
G#-------------------------------------------------------------------------|
E -7--7--7--7--7--7--7--7--7--7--7--7--7--7--7--7--7--7--7--7--7--7--7--7--|
B -7--7--7--7--7--7--7--7--7--7--7--7--7--7--7--7--7--7--7--7--7--7--7--7--|
F#-5--5--5--5--5--5--5--5--5--5--5--5--5--5--5--5--5--5--5--5--5--5--5--5--|
B -------------------------------------------------------------------------|
Pm .  .  .  .  .  .  .  .  .  .  .  .  .  .  .  .  .  .  .  .  .  .  .  .

Guitar 3
C#-------------------------------------------------------------------------|
G#-------------------------------------------------------------------------|
E -3--3--3--3--3--3--3--3--3--3--3--3--5--5--5--5--5--5--2--2--2--5--5--5--|
B -3--3--3--3--3--3--3--3--3--3--3--3--5--5--5--5--5--5--2--2--2--5--5--5--|
F#-1--1--1--1--1--1--1--1--1--1--1--1--3--3--3--3--3--3--0--0--0--3--3--3--|
B -------------------------------------------------------------------------|
Pm .  .  .  .  .  .  .  .  .  .  .  .  .  .  .  .  .  .  .  .  .  .  .  .

Guitar 1 & 2
C#-------------------------------------------------------------------------|
G#-------------------------------------------------------------------------|
E -------------------------------------------------------------------------|
B -0--0--0--0--0--0--0--0--0--0--0--0--0--0--0--0--0--0--0--0--0--0--0--0--|
F#-0--0--0--0--0--0--0--0--0--0--0--0--0--0--0--0--0--0--0--0--0--0--0--0--|
B -0--0--0--0--0--0--0--0--0--0--0--0--0--0--0--0--0--0--0--0--0--0--0--0--|
Pm .  .  .  .  .  .  .  .  .  .  .  .  .  .  .  .  .  .  .  .  .  .  .  .

Guitar 3
C#-------------------------------------------------------------------------|
G#-------------------------------------------------------------------------|
E -7--7--7--7--7--7--7--7--7--7--7--7--7--7--7--7--7--7--7--7--7--7--7--7--|
B -7--7--7--7--7--7--7--7--7--7--7--7--7--7--7--7--7--7--7--7--7--7--7--7--|
F#-5--5--5--5--5--5--5--5--5--5--5--5--5--5--5--5--5--5--5--5--5--5--5--5--|
B -------------------------------------------------------------------------|
Pm .  .  .  .  .  .  .  .  .  .  .  .  .  .  .  .  .  .  .  .  .  .  .  .

Guitar 1 & 2
C#-------------------------------------------------------------------------|
G#-------------------------------------------------------------------------|
E -3--3--3--3--3--3--3--3--3--3--3--3--5--5--5--5--5--5--5--5--5--5--5--5--|
B -3--3--3--3--3--3--3--3--3--3--3--3--5--5--5--5--5--5--5--5--5--5--5--5--|
F#-1--1--1--1--1--1--1--1--1--1--1--1--3--3--3--3--3--3--3--3--3--3--3--3--|
B -------------------------------------------------------------------------|
Pm .  .  .  .  .  .  .  .  .  .  .  .  .  .  .  .  .  .  .  .  .  .  .  .

Guitar 3
C#-------------------------------------------------------------------------|
G#-------------------------------------------------------------------------|
E -3--3--3--3--3--3--3--3--3--3--3--3--5--5--5--5--5--5--2--2--2--5--5--5--|
B -3--3--3--3--3--3--3--3--3--3--3--3--5--5--5--5--5--5--2--2--2--5--5--5--|
F#-1--1--1--1--1--1--1--1--1--1--1--1--3--3--3--3--3--3--0--0--0--3--3--3--|
B -------------------------------------------------------------------------|
Pm .  .  .  .  .  .  .  .  .  .  .  .  .  .  .  .  .  .  .  .  .  .  .  .

Guitar 1 & 2
C#-------------------------------------------------------------------------|
G#-------------------------------------------------------------------------|
E -------------------------------------------------------------------------|
B -0--0--0--0--0--0--0--0--0--0--0--0--0--0--0--0--0--0--0--0--0--0--0--0--|
F#-0--0--0--0--0--0--0--0--0--0--0--0--0--0--0--0--0--0--0--0--0--0--0--0--|
B -0--0--0--0--0--0--0--0--0--0--0--0--0--0--0--0--0--0--0--0--0--0--0--0--|
Pm .  .  .  .  .  .  .  .  .  .  .  .  .  .  .  .  .  .  .  .  .  .  .  .

Guitar 3
C#-------------------------------------------------------------------------|
G#-------------------------------------------------------------------------|
E -7--7--7--7--7--7--7--7--7--7--7--7--7--7--7--7--7--7--7--7--7--7--7--7--|
B -7--7--7--7--7--7--7--7--7--7--7--7--7--7--7--7--7--7--7--7--7--7--7--7--|
F#-5--5--5--5--5--5--5--5--5--5--5--5--5--5--5--5--5--5--5--5--5--5--5--5--|
B -------------------------------------------------------------------------|
Pm .  .  .  .  .  .  .  .  .  .  .  .  .  .  .  .  .  .  .  .  .  .  .  .

Guitar 1 & 2
C#-------------------------------------------------------------------------|
G#-------------------------------------------------------------------------|
E -3--3--3--3--3--3--3--3--3--3--3--3--5--5--5--5--5--5--5--5--5--5--5--5--|
B -3--3--3--3--3--3--3--3--3--3--3--3--5--5--5--5--5--5--5--5--5--5--5--5--|
F#-1--1--1--1--1--1--1--1--1--1--1--1--3--3--3--3--3--3--3--3--3--3--3--3--|
B -------------------------------------------------------------------------|
Pm .  .  .  .  .  .  .  .  .  .  .  .  .  .  .  .  .  .  .  .  .  .  .  .

Guitar 3
C#-------------------------------------------------------------------------|
G#-------------------------------------------------------------------------|
E -3--3--3--3--3--3--3--3--3--3--3--3--5--5--5--5--5--5--2--2--2--5--5--5--|
B -3--3--3--3--3--3--3--3--3--3--3--3--5--5--5--5--5--5--2--2--2--5--5--5--|
F#-1--1--1--1--1--1--1--1--1--1--1--1--3--3--3--3--3--3--0--0--0--3--3--3--|
B -------------------------------------------------------------------------|
Pm .  .  .  .  .  .  .  .  .  .  .  .  .  .  .  .  .  .  .  .  .  .  .  .

Pre Chorus 2---------------------------------------------------------------

Guitar 1 & 3
C#-------------------------------------------------------------------------|
G#-------------------------------------------------------------------------|
E -3--3--3--3--3--3--3--3--3--3--3--3--3--3--3--3--3--3--5--5--5--5--5--5--|
B -3--3--3--3--3--3--3--3--3--3--3--3--3--3--3--3--3--3--5--5--5--5--5--5--|
F#-1--1--1--1--1--1--1--1--1--1--1--1--1--1--1--1--1--1--3--3--3--3--3--3--|
B -------------------------------------------------------------------------|
Pm .  .  .  .  .  .  .  .  .  .  .  .  .  .  .  .  .  .  .  .  .  .  .  .

Guitar 2
C#-------------------------------------------------------------------------|
G#-------------------------------------------------------------------------|
E -10~~~~~~~~~~~~~~~~~~~~~~~~~~~~~~~~~~~~~~~~~~~~~~~~~~~~~~~~~~~~~~~~~~~~~-
B -------------------------------------------------------------------------|
F#-------------------------------------------------------------------------|
B -------------------------------------------------------------------------|

Guitar 1 & 3
C#-------------------------------------------------------------------------|
G#-------------------------------------------------------------------------|
E -7--7--7--7--7--7--7--7--7--7--7--7--7--7--7--7--7--7--5--5--5--5--5--5--|
B -7--7--7--7--7--7--7--7--7--7--7--7--7--7--7--7--7--7--5--5--5--5--5--5--|
F#-5--5--5--5--5--5--5--5--5--5--5--5--5--5--5--5--5--5--3--3--3--3--3--3--|
B -------------------------------------------------------------------------|
Pm .  .  .  .  .  .  .  .  .  .  .  .  .  .  .  .  .  .  .  .  .  .  .  .

Guitar 2
C#-------------------------------------------------------------------------
G#-10~~~~~~~~~~~~~~~~~~~~~~~~~~~~~~~~~~~~~~~~~~~~~~~~~~~~~~~~~~~~~~~~~~~~~-
E -------------------------------------------------------------------------|
B -------------------------------------------------------------------------|
F#-------------------------------------------------------------------------|
B -------------------------------------------------------------------------|

Guitar 1 & 3
C#-------------------------------------------------------------------------|
G#-------------------------------------------------------------------------|
E -3--3--3--3--3--3--3--3--3--3--3--3--3--3--3--3--3--3--3--3--3--3--3--3--|
B -3--3--3--3--3--3--3--3--3--3--3--3--3--3--3--3--3--3--3--3--3--3--3--3--|
F#-1--1--1--1--1--1--1--1--1--1--1--1--1--1--1--1--1--1--1--1--1--1--1--1--|
B -------------------------------------------------------------------------|
Pm .  .  .  .  .  .  .  .  .  .  .  .  .  .  .  .  .  .  .  .  .  .  .  .

Guitar 2
C#-------------------------------------------------------------------------|
G#-------------------------------------------------------------------------|
E -10~~~~~~~~~~~~~~~~~~~~~~~~~~~~~~~~~~~~~~~~~~~~~~~~~~~~~~~~~~~~~~~~~~~~~-
B -------------------------------------------------------------------------|
F#-------------------------------------------------------------------------|
B -------------------------------------------------------------------------|

Guitar 1 & 3
C#-------------------------------------------------------------------------|
G#-------------------------------------------------------------------------|
E -5--5--5--5--5--5--5--5--5--5--5--5--5--5--5--5--5--5--2~~~~~~~-5~~~~~~~-|
B -5--5--5--5--5--5--5--5--5--5--5--5--5--5--5--5--5--5--2~~~~~~~-5~~~~~~~-|
F#-3--3--3--3--3--3--3--3--3--3--3--3--3--3--3--3--3--3--0~~~~~~~-3~~~~~~~-|
B -------------------------------------------------------------------------|
Pm .  .  .  .  .  .  .  .  .  .  .  .  .  .  .  .  .  .  .  .  .  .  .  .

Guitar 2
C#-------------------------------------------------------------------------|
G#-------------------------------------------------------------------------|
E -12~~~~~~~~~~~~~~~~~~~~~~~~~~~~~~~~~~~~~~~~~~~~~~~~~~~-------------------|
B -------------------------------------------------------7~~~~~~~-10~~~~~~-|
F#-------------------------------------------------------------------------|
B -------------------------------------------------------------------------|

Chorus 1-------------------------------------------------------------------

All Guitars
C#-------------------------------------------------------------------------|
G#-------------------------------------------------------------------------|
E -7~~~~~~~~~~~~~~~~-3~~~~~~~~~~~~~~~~-------------------2~~~~~~-5~~~-5~~~-|
B -7~~~~~~~~~~~~~~~~-3~~~~~~~~~~~~~~~~-3~~~~~~~~~~~~~~~~-2~~~~~~-5~~~-5~~~-|
F#-5~~~~~~~~~~~~~~~~-1~~~~~~~~~~~~~~~~-3~~~~~~~~~~~~~~~~-0~~~~~~-3~~~-3~~~-|
B -------------------------------------3~~~~~~~~~~~~~~~~-------------------|

All Guitars
C#-------------------------------------------------------------------------|
G#-------------------------------------------------------------------------|
E -7~~~~~~~~~~~~~~~~-3~~~~~~~~~~~~~~~~-5~~~~~~~~~~~~~~~~-5~~~~~~-2~~~-5~~~-|
B -7~~~~~~~~~~~~~~~~-3~~~~~~~~~~~~~~~~-5~~~~~~~~~~~~~~~~-5~~~~~~-2~~~-5~~~-|
F#-5~~~~~~~~~~~~~~~~-1~~~~~~~~~~~~~~~~-3~~~~~~~~~~~~~~~~-3~~~~~~-0~~~-3~~~-|
B -------------------------------------------------------------------------|

All Guitars
C#-------------------------------------------------------------------------|
G#-------------------------------------------------------------------------|
E -7~~~~~~~~~~~~~~~~-3~~~~~~~~~~~~~~~~-------------------2~~~~~~-5~~~-5~~~-|
B -7~~~~~~~~~~~~~~~~-3~~~~~~~~~~~~~~~~-3~~~~~~~~~~~~~~~~-2~~~~~~-5~~~-5~~~-|
F#-5~~~~~~~~~~~~~~~~-1~~~~~~~~~~~~~~~~-3~~~~~~~~~~~~~~~~-0~~~~~~-3~~~-3~~~-|
B -------------------------------------3~~~~~~~~~~~~~~~~-------------------|

All Guitars
C#-------------------------------------------------------------------------|
G#-------------------------------------------------------------------------|
E -7~~~~~~~~~~~~~~~~-3~~~~~~~~~~~~~~~~-5~~~~~~~~~~~~~~~~-5~~~~~~-2~~~-5~~~-|
B -7~~~~~~~~~~~~~~~~-3~~~~~~~~~~~~~~~~-5~~~~~~~~~~~~~~~~-5~~~~~~-2~~~-5~~~-|
F#-5~~~~~~~~~~~~~~~~-1~~~~~~~~~~~~~~~~-3~~~~~~~~~~~~~~~~-3~~~~~~-0~~~-3~~~-|
B -------------------------------------------------------------------------|

Bridge---------------------------------------------------------------------

All Guitars
C#-------------------------------------------------------------------------|
G#-------------------------------------------------------------------------|
E -------------------------------------------------------------------------|
B -0~~~~~~~~~~~~~~~~~~~~~~~~~~~~~~~~~~~~~~~~~~~~~~~~~~~~~~~~~~~~~~~~~~~~~~-
F#-0~~~~~~~~~~~~~~~~~~~~~~~~~~~~~~~~~~~~~~~~~~~~~~~~~~~~~~~~~~~~~~~~~~~~~~-
B -0~~~~~~~~~~~~~~~~~~~~~~~~~~~~~~~~~~~~~~~~~~~~~~~~~~~~~~~~~~~~~~~~~~~~~~-

All Guitars
C#-------------------------------------------------------------------------|
G#-------------------------------------------------------------------------|
E -5~~~~~~~~~~~~~~~~~~~~~~~~~~~~~~~~~~-------------------------------------|
B -5~~~~~~~~~~~~~~~~~~~~~~~~~~~~~~~~~~-5~~~~~~~~~~~~~~~~~~~~~~~~-3~~~-3~~~-|
F#-3~~~~~~~~~~~~~~~~~~~~~~~~~~~~~~~~~~-5~~~~~~~~~~~~~~~~~~~~~~~~-3~~~-3~~~-|
B -------------------------------------5~~~~~~~~~~~~~~~~~~~~~~~~-3~~~-3~~~-|

All Guitars
C#-------------------------------------------------------------------------|
G#-------------------------------------------------------------------------|
E -------------------------------------------------------------------------|
B -0~~~~~~~~~~~~~~~~~~~~~~~~~~~~~~~~~~~~~~~~~~~~~~~~~~~~~~~~~~~~~~~~~~~~~~-
F#-0~~~~~~~~~~~~~~~~~~~~~~~~~~~~~~~~~~~~~~~~~~~~~~~~~~~~~~~~~~~~~~~~~~~~~~-
B -0~~~~~~~~~~~~~~~~~~~~~~~~~~~~~~~~~~~~~~~~~~~~~~~~~~~~~~~~~~~~~~~~~~~~~~-

All Guitars
C#-------------------------------------------------------------------------|
G#-------------------------------------------------------------------------|
E -5~~~~~~~~~~~~~~~~~~~~~~~~~~~~~~~~~~-------------------------------------|
B -5~~~~~~~~~~~~~~~~~~~~~~~~~~~~~~~~~~-7~~~~~~~~~~~~~~~~~~~~~~~~~~~~~~~~~~-
F#-3~~~~~~~~~~~~~~~~~~~~~~~~~~~~~~~~~~-7~~~~~~~~~~~~~~~~~~~~~~~~~~~~~~~~~~-
B -------------------------------------7~~~~~~~~~~~~~~~~~~~~~~~~~~~~~~~~~~-

Breakdown 1----------------------------------------------------------------

All Guitars ( the bends and returns are quick)
C#-------------------------------------------------------------------------|
G#-------------------------------------------------------------------------|
E -------------------------------------------------------------------------|
B -0--0--0-----------------10-10-10-0--10-10-----------8--8--8-------------|
F#-0--0--0-----------------10-10-10-0--10-10-----------8--8--8-------------|
B -0--0--0--12~brbr~~~~\~--10-10-10-0--10-10-12~~~~~~~-8--8--8--10~~~~~~~~-|
Pm .  .  .                 .  .  .     .  .            .  .  .

All Guitars
C#-------------------------------------------------------------------------|
G#-------------------------------------------------------------------------|
E -------------------------------------------------------------------------|
B -0--0--0-----------------10-10-10-0--10-10-----------8--8--8-------------|
F#-0--0--0-----------------10-10-10-0--10-10-----------8--8--8-------------|
B -0--0--0--12~brbr~~~~\~--10-10-10-0--10-10-12~~~~~~~-8--8--8--10~~~~~~~~-|
Pm    .  .                 .  .  .     .  .            .  .  .

All Guitars
C#-------------------------------------------------------------------------|
G#-------------------------------------------------------------------------|
E -------------------------------------------------------------------------|
B -0--0--0-----------------10-10-10-0--10-10-----------8--8--8-------------|
F#-0--0--0-----------------10-10-10-0--10-10-----------8--8--8-------------|
B -0--0--0--12~brbr~~~~\~--10-10-10-0--10-10-12~~~~~~~-8--8--8--10~~~~~~~~-|
Pm    .  .                 .  .  .     .  .            .  .  .

All Guitars
C#-------------------------------------------------------------------------|
G#-------------------------------------------------------------------------|
E -------------------------------------------------------------------------|
B -0--0--0-----------------10-10-10-0--10-10-----------8--8--8-------------|
F#-0--0--0-----------------10-10-10-0--10-10-----------8--8--8-------------|
B -0--0--0--12~brbr~~~~\~--10-10-10-0--10-10-12~~~~~~~-8--8--8--10~~~~~~~~-|
Pm    .  .                 .  .  .     .  .            .  .  .

Guitar Solo----------------------------------------------------------------

Guitar 1 & 2
C#-------------------------------------------------------------------------|
G#-------------------------------------------------------------------------|
E -------------------------------------------------------------------------|
B -------------------------------------------------------------------------|
F#-------------------------------------------------------------------------|
B -0--0--0--0--0--0--0--0--0--0--0--0--0--0--0--0--0--0--0--0--0--0--0--0--|
Pm .  .  .  .  .  .  .  .  .  .  .  .  .  .  .  .  .  .  .  .  .  .  .  .

Guitar 3 Finger tapping (For all tapping, tap on 12)
C#-------------------------------------------------------------|
B -t12p7t12p7p0h7-t12p7t12p7p0h7-t12p7t12p7p0h7-t12p7t12p7p0h7-|
E -------------------------------------------------------------|
B -------------------------------------------------------------|
F#-------------------------------------------------------------|
B -------------------------------------------------------------|

Guitar 1 & 2
C#-------------------------------------------------------------------------|
G#-------------------------------------------------------------------------|
E -------------------------------------------------------------------------|
B -------------------------------------------------------------------------|
F#-1--1--1--1--1--1--1--1--1--1--1--1--3--3--3--3--3--3--3--3--3--3--3--3--|
B -------------------------------------------------------------------------|
Pm .  .  .  .  .  .  .  .  .  .  .  .  .  .  .  .  .  .  .  .  .  .  .  .

Guitar 3
C#-------------------------------------------------------------------|
B -t12p10t12p10p0h10-t12p10t12p10p0h10-t12p8t12p8p0h8-t12p8t12p8p0h8-|
E -------------------------------------------------------------------|
B -------------------------------------------------------------------|
F#-------------------------------------------------------------------|
B -------------------------------------------------------------------|

Guitar 1 & 2
C#-------------------------------------------------------------------------|
G#-------------------------------------------------------------------------|
E -------------------------------------------------------------------------|
B -------------------------------------------------------------------------|
F#-------------------------------------------------------------------------|
B -0--0--0--0--0--0--0--0--0--0--0--0--0--0--0--0--0--0--0--0--0--0--0--0--|
Pm .  .  .  .  .  .  .  .  .  .  .  .  .  .  .  .  .  .  .  .  .  .  .  .

Guitar 3
C#-------------------------------------------------------|
B -t12p7p0h8p0h8p0h7t12p7p0h5-t12p5p0h7p0h7p0h5t12p5p0h3-|
E -------------------------------------------------------|
B -------------------------------------------------------|
F#-------------------------------------------------------|
B -------------------------------------------------------|

Guitar 1 & 2
C#-------------------------------------------------------------------------|
G#-------------------------------------------------------------------------|
E -------------------------------------------------------------------------|
B -------------------------------------------------------------------------|
F#-1--1--1--1--1--1--1--1--1--1--1--1--3--3--3--3--3--3--3--3--3--3--3--3--|
B -------------------------------------------------------------------------|
Pm .  .  .  .  .  .  .  .  .  .  .  .  .  .  .  .  .  .  .  .  .  .  .  .

Guitar 3
C#-------------------------------------------------------|
B -t12p3p0h5p0h5p0h3t12p3p0h2-t12p2p0h3p0h3p0h2t12p3p0h2-|
E -------------------------------------------------------|
B -------------------------------------------------------|
F#-------------------------------------------------------|
B -------------------------------------------------------|

Guitar 1 & 2
C#-------------------------------------------------------------------------|
G#-------------------------------------------------------------------------|
E -------------------------------------------------------------------------|
B -------------------------------------------------------------------------|
F#-------------------------------------------------------------------------|
B -0--0--0--0--0--0--0--0--0--0--0--0--0--0--0--0--0--0--0--0--0--0--0--0--|
Pm .  .  .  .  .  .  .  .  .  .  .  .  .  .  .  .  .  .  .  .  .  .  .  .

Guitar 3
C#-------------------------------------------------------|
B -0~~~~~~~~~~~~~~~~~~~----------------------------------|
E ----------------------2h3p2p0--------------------------|
B ------------------------------2p0~~~~~~~~~~~~~~~~~~~~~-|
F#-------------------------------------------------------|
B -------------------------------------------------------|

Guitar 1 & 2
C#-------------------------------------------------------------------------|
G#-------------------------------------------------------------------------|
E -------------------------------------------------------------------------|
B -------------------------------------------------------------------------|
F#-1--1--1--1--1--1--1--1--1--1--1--1--3--3--3--3--3--3--3--3--3--3--3--3--|
B -------------------------------------------------------------------------|
Pm .  .  .  .  .  .  .  .  .  .  .  .  .  .  .  .  .  .  .  .  .  .  .  .

Guitar 3
C#-------------------------------------------------------|
B ----------------------------------------------10~~~~~~-|
E ----------------------------12~~~~~~-14~~~~~~----------|
B -10-10-10-12-12-12-14-14-14----------------------------|
F#-------------------------------------------------------|
B -------------------------------------------------------|

Guitar 1 & 2
C#-------------------------------------------------------------------------|
G#-------------------------------------------------------------------------|
E -------------------------------------------------------------------------|
B -------------------------------------------------------------------------|
F#-------------------------------------------------------------------------|
B -0--0--0--0--0--0--0--0--0--0--0--0--0--0--0--0--0--0--0--0--0--0--0--0--|
Pm .  .  .  .  .  .  .  .  .  .  .  .  .  .  .  .  .  .  .  .  .  .  .  .

Guitar 3
C#-------------------------------------------------------|
B -12~~~~~~~~~~~~~~~~~~~~~~~~-12~~~~~~~~~~~~~~~~~~~~~~---|
E -------------------------------------------------------|
B -------------------------------------------------------|
F#-------------------------------------------------------|
B -------------------------------------------------------|

Guitar 1 & 2
C#-------------------------------------------------------------------------|
G#-------------------------------------------------------------------------|
E -------------------------------------------------------------------------|
B -------------------------------------------------------------------------|
F#-1--1--1--1--1--1--1--1--1--1--1--1--3--3--3--3--3--3--3--3--3--3--3--3--|
B -------------------------------------------------------------------------|
Pm .  .  .  .  .  .  .  .  .  .  .  .  .  .  .  .  .  .  .  .  .  .  .  .




Guitar 3
C#-20p17-------------------------------|
B -------17p15-------17p15-------------|
E -------------19p17-------19p17-------|
B -------------------------------19p17-|
F#-------------------------------------|
B -------------------------------------|

Pre Chorus 3---------------------------------------------------------------

Guitar 1 & 3
C#-------------------------------------------------------------------------|
G#-------------------------------------------------------------------------|
E -3--3--3--3--3--3--3--3--3--3--3--3--3--3--3--3--3--3--5--5--5--5--5--5--|
B -3--3--3--3--3--3--3--3--3--3--3--3--3--3--3--3--3--3--5--5--5--5--5--5--|
F#-1--1--1--1--1--1--1--1--1--1--1--1--1--1--1--1--1--1--3--3--3--3--3--3--|
B -------------------------------------------------------------------------|
Pm .  .  .  .  .  .  .  .  .  .  .  .  .  .  .  .  .  .  .  .  .  .  .  .

Guitar 2 (In my cover I play it at 15th fret the string above, but this works)
C#-------------------------------------------------------------------------|
G#-------------------------------------------------------------------------|
E -10~~~~~~~~~~~~~~~~~~~~~~~~~~~~~~~~~~~~~~~~~~~~~~~~~~~~~~~~~~~~~~~~~~~~~-
B -------------------------------------------------------------------------|
F#-------------------------------------------------------------------------|
B -------------------------------------------------------------------------|

Guitar 1 & 3
C#-------------------------------------------------------------------------|
G#-------------------------------------------------------------------------|
E -7--7--7--7--7--7--7--7--7--7--7--7--7--7--7--7--7--7--5--5--5--5--5--5--|
B -7--7--7--7--7--7--7--7--7--7--7--7--7--7--7--7--7--7--5--5--5--5--5--5--|
F#-5--5--5--5--5--5--5--5--5--5--5--5--5--5--5--5--5--5--3--3--3--3--3--3--|
B -------------------------------------------------------------------------|
Pm .  .  .  .  .  .  .  .  .  .  .  .  .  .  .  .  .  .  .  .  .  .  .  .

Guitar 2
C#-------------------------------------------------------------------------
G#-10~~~~~~~~~~~~~~~~~~~~~~~~~~~~~~~~~~~~~~~~~~~~~~~~~~~~~~~~~~~~~~~~~~~~~-
E -------------------------------------------------------------------------|
B -------------------------------------------------------------------------|
F#-------------------------------------------------------------------------|
B -------------------------------------------------------------------------|

Guitar 1 & 3
C#-------------------------------------------------------------------------|
G#-------------------------------------------------------------------------|
E -3--3--3--3--3--3--3--3--3--3--3--3--3--3--3--3--3--3--3--3--3--3--3--3--|
B -3--3--3--3--3--3--3--3--3--3--3--3--3--3--3--3--3--3--3--3--3--3--3--3--|
F#-1--1--1--1--1--1--1--1--1--1--1--1--1--1--1--1--1--1--1--1--1--1--1--1--|
B -------------------------------------------------------------------------|
Pm .  .  .  .  .  .  .  .  .  .  .  .  .  .  .  .  .  .  .  .  .  .  .  .

Guitar 2
C#-------------------------------------------------------------------------|
G#-------------------------------------------------------------------------|
E -10~~~~~~~~~~~~~~~~~~~~~~~~~~~~~~~~~~~~~~~~~~~~~~~~~~~~~~~~~~~~~~~~~~~~~-
B -------------------------------------------------------------------------|
F#-------------------------------------------------------------------------|
B -------------------------------------------------------------------------|

Guitar 1 & 3
C#-------------------------------------------------------------------------|
G#-------------------------------------------------------------------------|
E -5--5--5--5--5--5--5--5--5--5--5--5--5--5--5--5--5--5--4~~~~~~~-7~~~~~~~-|
B -5--5--5--5--5--5--5--5--5--5--5--5--5--5--5--5--5--5--4~~~~~~~-7~~~~~~~-|
F#-3--3--3--3--3--3--3--3--3--3--3--3--3--3--3--3--3--3--2~~~~~~~-5~~~~~~~-|
B -------------------------------------------------------------------------|
Pm .  .  .  .  .  .  .  .  .  .  .  .  .  .  .  .  .  .  .  .  .  .  .  .

Guitar 2
C#-------------------------------------------------------------------------|
G#-------------------------------------------------------------------------|
E -9~~~~~~~~~~~~~~~~~~~~~~~~~~~~~~~~~~~~~~~~~~~~~~~~~~~~-------------------|
B -------------------------------------------------------9~~~~~~~-12~~~~~~-|
F#-------------------------------------------------------------------------|
B -------------------------------------------------------------------------|

Chorus 2-------------------------------------------------------------------

All Guitars
C#-------------------------------------------------------------------------|
G#-------------------------------------------------------------------------|
E -9~~~~~~~~~~~~~~~~-5~~~~~~~~~~~~~~~~-------------------4~~~~~~-7~~~-7~~~-|
B -9~~~~~~~~~~~~~~~~-5~~~~~~~~~~~~~~~~-5~~~~~~~~~~~~~~~~-4~~~~~~-7~~~-7~~~-|
F#-7~~~~~~~~~~~~~~~~-3~~~~~~~~~~~~~~~~-5~~~~~~~~~~~~~~~~-2~~~~~~-5~~~-5~~~-|
B -------------------------------------5~~~~~~~~~~~~~~~~-------------------|

All Guitars
C#-------------------------------------------------------------------------|
G#-------------------------------------------------------------------------|
E -9~~~~~~~~~~~~~~~~-5~~~~~~~~~~~~~~~~-7~~~~~~~~~~~~~~~~-7~~~~~~-4~~~-7~~~-|
B -9~~~~~~~~~~~~~~~~-5~~~~~~~~~~~~~~~~-7~~~~~~~~~~~~~~~~-7~~~~~~-4~~~-7~~~-|
F#-7~~~~~~~~~~~~~~~~-3~~~~~~~~~~~~~~~~-5~~~~~~~~~~~~~~~~-5~~~~~~-2~~~-5~~~-|
B -------------------------------------------------------------------------|

All Guitars
C#-------------------------------------------------------------------------|
G#-------------------------------------------------------------------------|
E -9~~~~~~~~~~~~~~~~-5~~~~~~~~~~~~~~~~-------------------4~~~~~~-7~~~-7~~~-|
B -9~~~~~~~~~~~~~~~~-5~~~~~~~~~~~~~~~~-5~~~~~~~~~~~~~~~~-4~~~~~~-7~~~-7~~~-|
F#-7~~~~~~~~~~~~~~~~-3~~~~~~~~~~~~~~~~-5~~~~~~~~~~~~~~~~-2~~~~~~-5~~~-5~~~-|
B -------------------------------------5~~~~~~~~~~~~~~~~-------------------|

All Guitars
C#-------------------------------------------------------------------------|
G#-------------------------------------------------------------------------|
E -9~~~~~~~~~~~~~~~~-5~~~~~~~~~~~~~~~~-7~~~~~~~~~~~~~~~~-7~~~~~~-4~~~-7~~~-|
B -9~~~~~~~~~~~~~~~~-5~~~~~~~~~~~~~~~~-7~~~~~~~~~~~~~~~~-7~~~~~~-4~~~-7~~~-|
F#-7~~~~~~~~~~~~~~~~-3~~~~~~~~~~~~~~~~-5~~~~~~~~~~~~~~~~-5~~~~~~-2~~~-5~~~-|
B -------------------------------------------------------------------------|

Outro----------------------------------------------------------------------

Guitar 1
C#-------------------------------------------------------------------------|
G#-------------------------------------------------------------------------|
E -------------------------------------------------------------------------|
B -2--2--5--4--2--2--5--4--2--2--5--4--2--2--5--4--2--2--5--4--2--2--5--4--|
F#-------------------------------------------------------------------------|
B -------------------------------------------------------------------------|

Guitar 2
C#-------------------------------------------------------------------------|
G#-8--8--12-10-8--8--12-10-8--8--12-10-8--8--12-10-8--8--12-10-8--8--12-10-|
E -------------------------------------------------------------------------|
B -------------------------------------------------------------------------|
F#-------------------------------------------------------------------------|
B -------------------------------------------------------------------------|

Guitar 3
C#-------------------------------------------------------------------------|
G#-------------------------------------------------------------------------|
E -9~~~~-9~~~~-9--9--9~~~~-9~~~~-9--9--9~~~~-9~~~~-9--9--9~~~~-9~~~~-9--9--|
B -9~~~~-9~~~~-9--9--9~~~~-9~~~~-9--9--9~~~~-9~~~~-9--9--9~~~~-9~~~~-9--9--|
F#-7~~~~-7~~~~-7--7--7~~~~-7~~~~-7--7--7~~~~-7~~~~-7--7--7~~~~-7~~~~-7--7--|
B -------------------------------------------------------------------------|

Guitar 1
C#-------------------------------------------------------------------------|
G#-------------------------------------------------------------------------|
E -------------------------------------------------------------------------|
B -2--2--5--4--2--2--5--4--2--2--5--4--2--2--5--4--2--2--5--4--2--2--5--4--|
F#-------------------------------------------------------------------------|
B -------------------------------------------------------------------------|

Guitar 2
C#-------------------------------------------------------------------------|
G#-8--8--12-10-8--8--12-10-8--8--12-10-8--8--12-10-8--8--12-10-8--8--12-10-|
E -------------------------------------------------------------------------|
B -------------------------------------------------------------------------|
F#-------------------------------------------------------------------------|
B -------------------------------------------------------------------------|

Guitar 3
C#-------------------------------------------------------------------------|
G#-------------------------------------------------------------------------|
E -5~~~~-5~~~~-5--5--5~~~~-5~~~~-5--5--5--7--7--7--7--7--7~~~~-7--7--7--7--|
B -5~~~~-5~~~~-5--5--5~~~~-5~~~~-5--5--5--7--7--7--7--7--7~~~~-7--7--7--7--|
F#-3~~~~-3~~~~-3--3--3~~~~-3~~~~-3--3--3--5--5--5--5--5--5~~~~-5--5--5--5--|
B -------------------------------------------------------------------------|

Guitar 1
C#-------------------------------------------------------------------------|
G#-------------------------------------------------------------------------|
E -------------------------------------------------------------------------|
B -2--2--5--4--2--2--5--4--2--2--5--4--2--2--5--4--2--2--5--4--2--2--5--4--|
F#-------------------------------------------------------------------------|
B -------------------------------------------------------------------------|

Guitar 2
C#-------------------------------------------------------------------------|
G#-8--8--12-10-8--8--12-10-8--8--12-10-8--8--12-10-8--8--12-10-8--8--12-10-|
E -------------------------------------------------------------------------|
B -------------------------------------------------------------------------|
F#-------------------------------------------------------------------------|
B -------------------------------------------------------------------------|

Guitar 3
C#-------------------------------------------------------------------------|
G#-------------------------------------------------------------------------|
E -9~~~~-9~~~~-9--9--9~~~~-9~~~~-9--9--9~~~~-9~~~~-9--9--9~~~~-9~~~~-9--9--|
B -9~~~~-9~~~~-9--9--9~~~~-9~~~~-9--9--9~~~~-9~~~~-9--9--9~~~~-9~~~~-9--9--|
F#-7~~~~-7~~~~-7--7--7~~~~-7~~~~-7--7--7~~~~-7~~~~-7--7--7~~~~-7~~~~-7--7--|
B -------------------------------------------------------------------------|

Guitar 1
C#-------------------------------------------------------------------------|
G#-------------------------------------------------------------------------|
E -------------------------------------------------------------------------|
B -2--2--5--4--2--2--5--4--2--2--5--4--2--2--5--4--2--2--5--4--2--2--5--4--|
F#-------------------------------------------------------------------------|
B -------------------------------------------------------------------------|

Guitar 2
C#-------------------------------------------------------------------------|
G#-8--8--12-10-8--8--12-10-8--8--12-10-8--8--12-10-8--8--12-10-8--8--12-10-|
E -------------------------------------------------------------------------|
B -------------------------------------------------------------------------|
F#-------------------------------------------------------------------------|
B -------------------------------------------------------------------------|

Guitar 3
C#-------------------------------------------------------------------------|
G#-------------------------------------------------------------------------|
E -5~~~~-5~~~~-5--5--5~~~~-5~~~~-5--5--5--7--7--7--7--7--4~~~~~~~-7~~~~~~~-|
B -5~~~~-5~~~~-5--5--5~~~~-5~~~~-5--5--5--7--7--7--7--7--4~~~~~~~-7~~~~~~~-|
F#-3~~~~-3~~~~-3--3--3~~~~-3~~~~-3--3--3--5--5--5--5--5--2~~~~~~~-5~~~~~~~-|
B -------------------------------------------------------------------------|

===========================================================================
===========================================================================

Guitar 1
C#-------------------------------------------------------------------------|
G#-------------------------------------------------------------------------|
E -------------------------------------------------------------------------|
B -2~~~~~~~~~~~~~~~~~~~~~~~~~~~~~~~~~~~~~~~~~~~~~~~~~~~~~~~~~~~~~~~~~~~~~~-|
F#-------------------------------------------------------------------------|
B -------------------------------------------------------------------------|

Guitar 2
C#-------------------------------------------------------------------------|
G#-8~~~~~~~~~~~~~~~~~~~~~~~~~~~~~~~~~~~~~~~~~~~~~~~~~~~~~~~~~~~~~~~~~~~~~~-|
E -------------------------------------------------------------------------|
B -------------------------------------------------------------------------|
F#-------------------------------------------------------------------------|
B -------------------------------------------------------------------------|

Guitar 3
C#-------------------------------------------------------------------------|
G#-------------------------------------------------------------------------|
E -9~~~~~~~~~~~~~~~~~~~~~~~~~~~~~~~~~~~~~~~~~~~~~~~~~~~~~~~~~~~~~~~~~~~~~~-|
B -9~~~~~~~~~~~~~~~~~~~~~~~~~~~~~~~~~~~~~~~~~~~~~~~~~~~~~~~~~~~~~~~~~~~~~~-|
F#-7~~~~~~~~~~~~~~~~~~~~~~~~~~~~~~~~~~~~~~~~~~~~~~~~~~~~~~~~~~~~~~~~~~~~~~-|
B -------------------------------------------------------------------------|

Tab Legend
h  -  hammer-on
p  -  pull-off
/  -  slide up
\  -  slide down
ps/-  pickslide up
ps\-  pickslide down
~  -  let ring
pm.-  palm mute
b  -  bend
r  -  return from bend
*  -  harmonic
x  -  dead note
^ -  Whammy bar

That’s all for this tab. Check out my cover, and tell me how I did, whether you thought
it was horrible or good. Thanks, oh and one last thing... ROCK OUT!!!!
comments
We did not receive enough feedback on this tab! Please rate:
print report bad tab
1 2 3 4 5
2 comments total.
0 reply
ixayaxi wrote on July 29 2011, 07:29 pm

man, you are a f*cking crack

0 reply
entropicxdisson wrote on August 26 2014, 05:16 pm

this is on a seven string, look up a live video.

I want to post or [tab]
guest
You may want to rate the tab now too:
select rating
Please do not post tabs as comments. Select "correction" instead!